Band: The White Stripes
Song: Screwdriver
Submitted by: Daniel Sims

STANDARD TUNING (EADGBe)

/: Slide down
: Slide up
b: Bend
.: Play the note and damp it fast with your palm

INTRO
e|---------------------------------------|
B|---------------------------------------|
G|------------------5-5-7-5-7b8b7-5-7-5--| x2
D|-7-7-7-7/5-57-7---7-----------------7-|
A|-7-7-7-7/5-57-7-----------------------|
E|-5-5-5-5/3-35-5-----------------------|

e|---------------------------------------|
B|---------------------------------------| x1
G|---------------------------------------| 
D|-7-7-7-7/5-57-7--7-7-7----------------|
A|-7-7-7-7/5-57-7--7-7-7----------------|
E|-5-5-5-5/3-35-5--5-5-5----------------|

CHORUS/VERSE
e|------------------|
B|------------------|
G|------------------| x5
D|--7~-7-7/5~-5-5--|
A|--7~-7-7/5~-5-5--|
E|--5~-5-5/3~-3-3--|

e|---------------------------------------|
B|---------------------------------------|
G|------------------5-5-7-5-7b8b7-5-7-5--| x2
D|-7-7-7-7/5-57-7---7-----------------7-|
A|-7-7-7-7/5-57-7-----------------------|
E|-5-5-5-5/3-35-5-----------------------|

e|---------------------------------------|
B|---------------------------------------| x1
G|---------------------------------------| 
D|-7-7-7-7/5-57-7--7-7-7----------------|
A|-7-7-7-7/5-57-7--7-7-7----------------|
E|-5-5-5-5/3-35-5--5-5-5----------------|

There is an interlude but i can't work it out.

CHORUS/VERSE
e|------------------|
B|------------------|
G|------------------| x5
D|--7~-7-7/5~-5-5--|
A|--7~-7-7/5~-5-5--|
E|--5~-5-5/3~-3-3--|

OUTRO
e|-------------------------------------|
B|-------------------------------------|
G|-------------------------------------|
D|7------------------------------------|
A|7-(Palm mute this part lots of times)|
E|5------------------------------------|

e|---------------------------------------|
B|---------------------------------------|
G|------------------5-5-7-5-7b8b7-5-7-5--| x2
D|-7-7-7-7/5-57-7---7-----------------7-|
A|-7-7-7-7/5-57-7-----------------------|
E|-5-5-5-5/3-35-5-----------------------|

e|---------------|
B|---------------|
G|---------------|
D|7-7-7--7-7-7--7|
A|7-7-7--7-7-7--7|
E|5-5-5--5-5-5--5|
    . . .  . . .


And thats about it (apart from the interlude but you will have to work that out yourself).


Текст, аккорды и табулатура для песни "Screwdriver", исполняет "White Stripes".
Используемые в песне аккорды можно найти в разделе Как брать аккорды. Аккорды для шестиструнной гитары. Другие песни можно найти на нашем сайте, воспользовавшись алфавитным указателем вверху страницы.


 
Ошибка в тексте? Выделите ошибку и нажмите Ctrl+Enter