Little Acorns

Standard Tuning ( E A D G B E )


0:59
|------------------------------------|
|------------------------------------|
|--------7b------7b------7b------7b--|
|--8-6-5---8-6-5---8-6-5---8-6-5-----|
|--8-6-5---8-6-5---8-6-5---8-6-5-----|
|--6-4-3---6-4-3---6-4-3---6-4-3-----|


|----------------------------|
|----------------------------|
|-------------------------7b-|
|--8-6-8-8-8888-7-7-6-6-5----|
|--8-6-8-8-8888-7-7-6-6-5----|
|--6-4-6-6-6666-5-5-4-4-3----|


|------------------------------------|
|------------------------------------|
|--------7b------7b------7b------7b--|
|--8-6-5---8-6-5---8-6-5---8-6-5-----|
|--8-6-5---8-6-5---8-6-5---8-6-5-----|
|--6-4-3---6-4-3---6-4-3---6-4-3-----|


|--------------------------|
|--------------------------|
|--------------------------|
|--8-6-8-8-8888-7-7-6-6-5--|
|--8-6-8-8-8888-7-7-6-6-5--|
|--6-4-6-6-6666-5-5-4-4-3--|


|-----------------------------------|
|-----------------------------------|
|-----------------------------------|
|--55555555555555-3333333333333333--| x5
|--55555555555555-3333333333333333--|
|--33333333333333-1111111111111111--|
  |______________||_______________|
        14               16

|------------------------------------|
|------------------------------------|
|------------------------------------|
|--6-6-8-8-6-5--5-8-8-6-3--3-8-8-6-3-|
|--6-6-8-8-6-5--5-8-8-6-3--3-8-8-6-3-|
|--4-4-6-6-4-3--3-6-6-4-1--1-6-6-4-1-|



|----------------------------------|
|----------------------------------|
|----------------------------------|
|--3-8-8-6-5--5-8-8-6-5--5-8-8-6-3-|
|--3-8-8-6-5--5-8-8-6-5--5-8-8-6-3-|
|--1-6-6-4-3--3-6-6-4-3--3-6-6-4-1-|


|----------------------|
|----------------------|
|----------------------|
|--5-8-8-6-3--3-8-8-6-5|
|--5-8-8-6-3--3-8-8-6-5|
|--3-6-6-4-1--1-6-6-4-3|


|------------------------------------|
|------------------------------------|
|--------7b------7b------7b------7b--|
|--8-6-5---8-6-5---8-6-5---8-6-5-----|
|--8-6-5---8-6-5---8-6-5---8-6-5-----|
|--6-4-3---6-4-3---6-4-3---6-4-3-----|


|----------------------------|
|----------------------------|
|-------------------------7b-|
|--8-6-8-8-8888-7-7-6-6-5----|
|--8-6-8-8-8888-7-7-6-6-5----|
|--6-4-6-6-6666-5-5-4-4-3----|


|------------------------------------|
|------------------------------------|
|--------7b------7b------7b------7b--|
|--8-6-5---8-6-5---8-6-5---8-6-5-----|
|--8-6-5---8-6-5---8-6-5---8-6-5-----|
|--6-4-3---6-4-3---6-4-3---6-4-3-----|


|--------------------------|
|--------------------------|
|--------------------------|
|--8-6-8-8-8888-7-7-6-6-5--|
|--8-6-8-8-8888-7-7-6-6-5--|
|--6-4-6-6-6666-5-5-4-4-3--|


|-----------------------------------|
|-----------------------------------|
|-----------------------------------|
|--55555555555555-3333333333333333--| x5
|--55555555555555-3333333333333333--|
|--33333333333333-1111111111111111--|
  |______________||_______________|
        14               16

|------------------------------------|
|------------------------------------|
|------------------------------------|
|--6-6-8-8-6-5--5-8-8-6-3--3-8-8-6-3-|
|--6-6-8-8-6-5--5-8-8-6-3--3-8-8-6-3-|
|--4-4-6-6-4-3--3-6-6-4-1--1-6-6-4-1-|


|----------------------------------|
|----------------------------------|
|----------------------------------|
|--3-8-8-6-5--5-8-8-6-5--5-8-8-6-3-|
|--3-8-8-6-5--5-8-8-6-5--5-8-8-6-3-|
|--1-6-6-4-3--3-6-6-4-3--3-6-6-4-1-|


|----------------------|
|----------------------|
|----------------------|
|--5-8-8-6-3--3-8-8-6-5|
|--5-8-8-6-3--3-8-8-6-5|
|--3-6-6-4-1--1-6-6-4-3|


|------------------------------------|
|------------------------------------|
|--------7b------7b------7b------7b--|
|--8-6-5---8-6-5---8-6-5---8-6-5-----|
|--8-6-5---8-6-5---8-6-5---8-6-5-----|
|--6-4-3---6-4-3---6-4-3---6-4-3-----|


|--------------------------|
|--------------------------|
|--------------------------|
|--8-6-8-8-8888-7-7-6-6-5--|
|--8-6-8-8-8888-7-7-6-6-5--|
|--6-4-6-6-6666-5-5-4-4-3--|


Текст, аккорды и табулатура для песни "Little Acorns", исполняет "White Stripes".
Используемые в песне аккорды можно найти в разделе Как брать аккорды. Аккорды для шестиструнной гитары. Другие песни можно найти на нашем сайте, воспользовавшись алфавитным указателем вверху страницы.


 
Ошибка в тексте? Выделите ошибку и нажмите Ctrl+Enter