In The Cold, Cold Night
The White Stripes 
(Jack White)

Tabbed by Ryan Waters

When Meg sang this at Brixton Academy on the 11th April 03, it was f**king
amazing.... This is how I worked the song out to be.... bear in mind I have
a shit ear, but it sounds good.....

Main Riff : Played thru intro (x2) and verse (x3)

e--------------------------------------------
B--------------------------------------------
G--5/7--X---7/10--X---10/12--X-----12/14--X--
D--------------------------------------------	  
A--3/5---X--5/8----X---8/10---X----10/12---X-
E--------------------------------------------

End of verse:

e--------------------------------------------
B--------------------------------------------
G--------------------------------------------	Then back to the main 
D---5/7--------------------7/5---------------	riff....
A--------------------------------------------
E---3/5--------------------5/3---------------


3rd Verse

e---------------		---------------		----------
B---------------		---------------		----------
G--5/7----------		--10/12--------		--5/7-----
D---------------	  x4	---------------	x2	----------	x2
A--3/5----------		---8/10--------		--3/5-----
E---------------		---------------		----------

then play end of verse riff again, then back to verse riff.....

strummed verse....

e-------------------------5-------------------
B-------------------------5-------------------
G--5/7----7--7--5--5-------------------------
D--5/7----7--7--3--3--7----------------------	  x3
A--3/5----5--5--3--3--7----------------------
E---------------------5----------------------

then

e--------------------------------------------
B--------------------------------------------
G--------------------------------------------	Then back to the main 
D---5/7--------------------7/5---------------	riff....
A---5/7--------------------5/7---------------
E---3/5--------------------5/3---------------

and end on

e---7----
B--------
G---7----
D--------
A--------
E--------


If ya know the song, ya know where it all goes.....
Enjoy...

[email protected]


Текст, аккорды и табулатура для песни "In The Cold Cold Night", исполняет "White Stripes".
Используемые в песне аккорды можно найти в разделе Как брать аккорды. Аккорды для шестиструнной гитары. Другие песни можно найти на нашем сайте, воспользовавшись алфавитным указателем вверху страницы.


 
Ошибка в тексте? Выделите ошибку и нажмите Ctrl+Enter