White Stripes 
Girl you have no faith in medicine


first riff
----------------------------
----------------------------
----5-5-5-----5-5-5-5-------    
-5--5-5-5-5-x-5-5-5-5-------
-5--3-3-3-5-x-3-3-3-3-------
-3--------3-x---------------

riff 2
------------------------------
-------------------------------
---5-5-5-----5-5-5-5-5---------
-7-5-5-5-7-x-5-5-5-5-5---------  
-7-3-3-3-7-x-3-3-3-3-3---------
-5-------5-x-------------------

repeat riff 1 then

riff 3
--------------------------10-10-10------
--------------------------10-10-10------
-5-5-5--------------------11-11-11------
-5-5-5--7-7-7--5-5-5-x-x--12-12-12------
-3-3-3--7-7-7--5-5-5-x-x--12-12-12------
--------5-5-5--3-3-3-x-x--10-10-10------

then... 
Solo 1
-7b8~~~~-7p5------------------------
-------------7p5--------------------
-----------------7--7p5-------------
------------------------7p5---------
----------------------------7p5-----
--------------------------------7p5-

Solo 2
7b8~~~~-7p5-----------------
------------7p5-------------
----------------7-7p5-------
----------------------9p7-5-
----------------------------
----------------------------

Solo 3
-9b11(11)~~~~-h9p7h9p7h9p7h9p7h9p7--7b-
--------------------------------------
--------------if you don't have one ---
-----------------don't worry)----------
---------------------------------------
---------------------------------------

Solo 4
----9-7---------------
-7b-----7-5-----------
-7b---------9-7-------
----------------7p5---
--------------------7-
----------------------


After each solo it plays riff one then goes to the next listen
to the song to figure out the order


Текст, аккорды и табулатура для песни "Girl You Have No Faith In Medicine", исполняет "White Stripes".
Используемые в песне аккорды можно найти в разделе Как брать аккорды. Аккорды для шестиструнной гитары. Другие песни можно найти на нашем сайте, воспользовавшись алфавитным указателем вверху страницы.


 
Ошибка в тексте? Выделите ошибку и нажмите Ctrl+Enter