Song: Dead Leaves and the Dirty Ground - The White Stripes
Tabbed by Jeff (sonixon)
E-mail : [email protected]

Intro


            Gtrs I, II
            ~        ~
|---------|-------------------|----------------------|
|---------|-------------------|----------------------|
|---------|-------------------|----------------------|
|---------|-------------------|-------------2--2-2-0-|
|---------|-------------------|-------------0--0-0-0-|
|---------|-5--5-5-0-3--3-3-0-|-2-2-0-1-1-0----------|


  ~        ~
|-------------------|---------------------------|
|-------------------|---------------------------|
|-------------------|---------------------------|
|-------------------|-------------2-2-----------|
|-------------------|-------------0-0-----------|
|-5--5-5-0-3--3-3-0-|-2-2-0-1-1-0-----3b3.5-(3)-|


  Gtr IV
|-------------------|-----------------------------|--------------------|
|-------------------|-----------------------------|--------------------|
|-2--------0--0-0-0-|---------------------0-------|-2--2-2-------------|
|-2--------0--0-0-0-|-------------2-2-2-2-0-------|-2--2-2-0-----------|
|-0--0-----x--x-x-x-|-------------0-0-0-0-x-------|-0--0-0-0-----------|
|------0-0-3--3-3-3-|-2-2-0-1-1-0---------3b3.5---|----------3--3-3-0--|
|
| Gtr III
|-------------------|-----------------------------|--------------------|
|-2--2-2-0----------|-------------2---2---2-------|-2--2-2-0-----------|
|-2--2-2-0-4--4-4---|-------------2---2---2-----0-|-2--2-2-0-4--4-4----|
|-2--2-2-0-5--5-5---|-------------2---2---2-----0-|-2--2-2-0-5--5-5----|
|-0--0-0---5--5-5---|-4-4---3-3---0---0---0-------|-0--0-0---5--5-5----|
|----------3--3-3-0-|-2-2-0-1-1-0-----------------|----------3--3-3-0--|


|-----------------------------|
|-----------------------------|
|-----------------------0-----|
|-------------2-2-2-----0-----|
|-------------0-0-0-----x-----|
|-2-2-0-1-1-0-----------3b3.5-|
|
|-----------------------------|
|-------------2-2-------------|
|-------------2-2-0-----------|
|-------------2-2-0-----------|
|-4-4---3-3---0-0-x-----------|
|-2-2-0-1-1-0-----3b3.5-3-----|


  Gtr V
|-------------------------|---------------------------|
|-2---3p2-----------------|---------------------2-----|
|-2-------------------0---|-----0-------0-----2-----0-|
|-2-2---------------0-----|---2-------4-----2---------|
|-0-------0-----0h2-------|-3-----3s5-----0-------0---|
|-----------0h3---------0-|---------------------------|
|
| Gtr II
| >
|-------------------------|---------------------------|
|-2-----------------------|---------------------------|
|-2-----------------------|---------------------------|
|-2-----------------------|---------------------------|
|-0-----------------------|---------------------------|
|-------------------------|---------------------------|


|-----------------------------|------------------------------||
|-----3p2-----------------0---|------------------------2-----||
|---2-------2-----------0-----|-----0--------0-0-----2---0-0-||
|-2-------2-----------0-----0-|---2---2----0-------2-----0---||
|-----------------0h2---------|-3-------/5-------0-----------||
|-------------0h3-------------|------------------------------||


 1st Verse
|-----------------3-------|-----0----------------|
|-----3p2---------0-------|-1---0-3-3------------|
|---x-2---2-2-----0-0-0-0-|-0-----2-2---2--2-2-0-|
|-2---2---2-2-------0-0-0-|-2-----0-0-0-2--2-2-0-|
|-0-------------x---x-x-x-|-3-3---------0--0-0-x-|
|-------------3-----3-3-3-|--------------------3-|


|--------0---3-------|-----0----------------|
|--------0-------0-0-|-1---0-3---0----------|
|-2--2-2---0-----0-0-|-0-----2---0-2--2-----|
|-2--2-2---0---0-0-0-|-2-2---0-0-0-2--2-----|
|-0--0-0---x---x-----|-3-3-------0-0--0-----|
|----------3---3-----|------------------0-0-|


|-----------------------|----------3-------|
|-------0-0-2-----2-2---|-2--2---0-0-----0-|
|---x---0---2---2-2-2---|-2--2---0-----0---|
|-----0-0---2-x---2-2---|-2--2---0---0-0---|
|-3---x-x---0-----0-0---|-0--0-0-x---x-----|
|-1---3-3-------------3-|--------3---3-----|


|-----------------------|------------3---0-0-|
|-1-0-0-3-------------0-|-2------0-0-----0-0-|
|-0-0-0-2---0-2-x-2-2-0-|-2--2---0-0-----0-0-|
|-2-----0-0---2---2-2-0-|-2--2---0-----------|
|-3-----0-----0---0-0-x-|-0--0-0-x-----------|
|---------------------3-|------0-3-----3-----|


                                            Gtrs I, II
|-----0-2------------------|---------------------|
|-1---0-3--------2-----0-0-|-------0---0-2-------|
|-0-0---2---0-2--2-----x-x-|-------0-----2-------|
|-2-2---0-0---2--2-----0-0-|-------0-0---2-------|
|-3-----------0--0-(0)-0-0-|-3-(3)-x-----0--[x]--|
|----------------------0-0-|-1-----3-------------|


  Gtr IV
|-----------------------0-|-----------------------|
|-2-----2---------------0-|---0-----------------0-|
|-2-----2-----4-----4-----|-5-0-7--7-2-(2)--2-2-0-|
|-2-x-x-2-x-x-5-x-x-5-----|-5---7--7-2-(2)--2-2-0-|
|-0-x-x-0-x-x-5-x-x-5-5---|-3---5--5-0-(0)--0-0-x-|
|-------------3-x-x-3-3---|-----5--5------------3-|
|
| Gtr III
|-------------------------|-----------------------|
|-2-----2-----------------|-----------------------|
|-2-----2-----4-----4-----|-5-5-7--7--------------|
|-2-x-x-2-x-x-5-----5-----|-5-5-7--7-7-(7)--------|
|-0-x-x-0-x-x-5-x-x-5-x-x-|-3-3-5--5-7-(7)--x-7---|
|-------------3-x-x-3-x-0-|----------5-(5)--x-5-0-|


|-----------------------0-|-----------------------------|
|-2-----2---------------0-|---0-------------------------|
|-2-----2-----4-----4-----|-5-0-7--7-2-(2)---2--2-------|
|-2-x-x-2-x-x-5-x-x-5-----|-5---7--7-2-(2)---2--2-------|
|-0-x-x-0-x-x-5-x-x-5-x---|-3---5--5-0-(0)---0--0-------|
|-------------3-x-x-3-x---|-----5--5--------------3b3.5-|
|
|-------------------------|-----------------------------|
|-2-----2-----------------|-----------------------------|
|-2-----2-----4-----4-----|-5-5-7--7--------------------|
|-2-x-x-2-x-x-5-----5-----|-5-5-7--7-7-(7)--(7)s5-5-----|
|-0-x-x-0-x-x-5-x-x-5-x-x-|-3-3-5--5-7-(7)--(7)---5-----|
|-------------3-x-x-3-x-x-|----------5-(5)--(5)---3-----|


 2nd Verse
  Gtr V
|-------------|---------------|--------------------|-----0-----------------|
|-------------|---------------|-2--2-2-2---0-----0-|-----0-3----------0-0--|
|-2-----------|---------------|-2--2-2-2-0-0-0-0---|-------2-x-0-2--2-0-0--|
|-2-----------|---------------|-2--2-2-2-0---0-0---|-2-2---0-----2--2-x-x--|
|-0-----------|---------0-----|-0--0-0-0-x---x-x---|-3-3---0-----0--0-x-x--|
|-------3-----|--2---1------3-|----------3---3-3---|------------------0-0--|
|
| Gtr III
|-2-----------|---------------|--------------------|-----------------------|
|-2-----------|---------------|--------------------|-----------------------|
|-2-----------|---------------|--------------------|-----------------------|
|-2-----------|---------------|--------------------|-----------------------|
|-0----(0)----|-(0)-----------|--------------------|-----------------------|
|-------------|---------------|--------------------|-----------------------|


|-----------------|------0---3-----0-|
|------0------(0)-|------------------|
|------0-2--2-----|-2--2---0---0-0---|
|----0---2--2-----|-2--2---0---0-0---|
|-3--x---0--0-----|-0--0---x---x-----|
|-1--3---------3--|--------3---3-----|


|-----0-------------|--------3------0-|
|-1---0-3-3-2-2-----|--------0--0-0---|
|-0-0---2-2-2---2---|-2--2-2-0--0-0---|
|-2-----0---2---2---|-2--2-2-0--0-0---|
|-3-----0---0---0---|-0--0-0-x--x-x---|
|-----------------3-|--------3--3-3---|


                                    Gtrs I, II
|-----0-----------------|----------------|
|-----0-3-0-0-2-2-2-0-0-|------0-2-------|
|-------2-0---2-2-2-0-0-|--------2-------|
|-5-5---0-----2-2-2-x-x-|-3--0---2-------|
|-5-5---0-----0-0-0-0-0-|-3--x---0--[x]--|
|-3-3---------------0-0-|-1--3-----------|


  Gtr IV
|-----------------------|-------------------------|
|-2---2---------------0-|---0------2-(2)--(2)---0-|
|-2---2-----4-----4---0-|-5-0-7--7-2-(2)--(2)-2-0-|
|-2---2-----5-----5-----|-5-0-7--7-2-(2)--(2)-2-0-|
|-0---0-----5-x-x-5-5---|-3---5--5-0-(0)--(0)---x-|
|---0---x-0-3-x-x-3-3---|-----------------------3-|
|
| Gtr III
|-----------------------|-------------------------|
|-----------------------|---------------------x---|
|-2---2-----4-----4---x-|-5-5-7--7-2-(2)--(2)-----|
|-2---2-----5-----5-x---|-5-5-7--7-2-(2)--(2)-----|
|-0---0-----5-----5-----|-3-3-5--5-0-(0)--(0)-----|
|-----------3-----3-----|-----------------------0-|


      GtrsGtr IV  GtrsGtr IV
|-------------------------0-|-----------------------|
|---------2---------------0-|----------2-(2)--2-2-0-|
|-2-------2-----------------|-5-5-7--7-2-(2)--2-2-0-|
|-2---[x]-2-----5-----5-----|-5-5-7--7-2-(2)--2-2-0-|
|-0-x-----0-----5-[x]-5-5---|-3-3-5--5-0-(0)--0-0-0-|
|-----------x-0-3-----3-x---|-3-3-5--5------------0-|
|
|---------------------------|-----------------------|
|---------------------------|-----7----2-(2)--------|
|-2-------2-x-x-----------0-|-5-5-7--7-2-(2)--------|
|-2-------2-x-x-5-----5-x-0-|-5-5-7--7-2-(2)--------|
|-0-------0-----5-----5-----|-3-3-5--5-0-(0)--------|
|---------------3-----3-----|-3---------------------|


 Bridge
  Gtrs III, V
|-------------------|-------------|-----------------|
|-7-----------7--7--|-7--7--7--7--|-----------------|
|-7-----7-----7--7--|-7--7--7--7--|-----------------|
|-7-x-x-7-x-x-7--7--|-7--7--7--7--|-7--7--7-----7-5-|
|-5-----5-----5--5--|-5--5--5--5--|-7--7--7-x-x-7-5-|
|-------------------|-------------|-5--5--5-----5-3-|


|---------------------|-------------------|-----------------|
|-------------------0-|-7-----------7--7--|-7--7--7--7---0--|
|---------------------|-7-----7-----7--7--|-7--7--7--7---0--|
|-7--7--7-----7-------|-7-x-x-7-x-x-7--7--|-7--7--7--7---0--|
|-7--7--7-x-x-7-------|-5-----5-----5--5--|-5--5--5--5-0----|
|-5--5--5-----5-(0)---|-------------------|------------0----|


|-----------------|---------------|
|-----------------|---------------|
|-----------------|---------------|
|-3--3-3-3--3-----|-5--5-5-5--5---|
|-3--3-3-3--3-----|-5--5-5-5--5---|
|-1--1-1-1--1-1S3-|-3--3-3-3--3-0-|


 3rd Verse
  Gtr V
|--------------|-------------|-----------------0-|-------------------------|
|--------------|-------------|-------------0-0-0-|-1---0-3---3-2---------0-|
|-2------------|-------------|-2--2-x-x----0-0---|-0-0-0-2-x---2-----2-----|
|-2------------|-------------|-2--2-x-x----0-----|-2-----0-----2-x-x-2-x---|
|-0--(0)-------|-------0-----|-0--0--------x-----|-3-----0-----0-x-x-0-----|
|---------3----|-2--1------3-|----------3--3-----|-------------------------|
|
| Gtr III
| >
|--------------|-------------|-------------------|-------------------------|
|--------------|-------------|-------------------|-------------------------|
|--------------|-------------|-------------------|-------------------------|
|--------------|-------------|-------------------|-------------------------|
|--------------|-------------|-------------------|-------------------------|
|-0------------|-------------|-------------------|-------------------------|


                       Outro
|------------------0-||---------------------0-----0-|
|------0-2-2-3p2-0-0-||-----x-3p2-2-2-------0-0-0-0-|
|----0-0-2-------0---||-2-2---2---2-2---------0-0---|
|----0---2-----------||-2---------2-2-----0---0-0---|
|-3--x---0-----------||-0---------------------2-----|
|-1--3---------------||---------------0h3-----3-----|


|---3-------------------|-------------------3-----0-|-----0------------*|
|-1-0-0h3-3---2-2h3p2---|-----2-3p2-----------0-0-0-|-1---0-^3---^2----*|
|-0---0-2-------2-------|-2-2---2---2-----0---0-0---|-0-0---^2-0-^2----*|
|-2---0---------2-----0-|-2-----2---2-----0---0-----|-2-x---^0-0-^2----*|
|-3---------0---0-------|-0-----0---0-0-------------|-3--------0-^0----*|
|-----------------------|---------------3-----------|------------------*|


Текст, аккорды и табулатура для песни "Dead Leaves And The Dirty Ground", исполняет "White Stripes".
Используемые в песне аккорды можно найти в разделе Как брать аккорды. Аккорды для шестиструнной гитары. Другие песни можно найти на нашем сайте, воспользовавшись алфавитным указателем вверху страницы.


 
Ошибка в тексте? Выделите ошибку и нажмите Ctrl+Enter