This is a pretty hard song to tab out, due to
the riffs before the verse. You don't have to 
play them exactly, just add bits or take them
away according to your taste. Parts of this tab 
are based on Jack playing live.

 Intro
 |-----------------------------------------|
 |-----------------------------------------|
 |-----------------------------------------|
 |----------------------------------2--2-2-|
 |----------------------------------0--0-0-|
 |-5--5-5-0--3--3-3-0-2--2-0-1--1-0--------|

 Intro Pt.2
  A      G       G    F#   A
 |-0--0---3--3----3----2----0--0---|
 |-2--2---3--3----3----2----2--2---|
 |-2--2-2-0--0-xx-4-xx-3-xx-2--2-2-|
 |-2--2-2-0--0-xx-5-xx-4-xx-2--2-2-|
 |-0--0-0-2--2-xx-5-xx-4-xx-0--0-0-|
 |--------3--3---------------------|

 Intro Pt.3
 |--------------------------------------|
 |----3---------------------2h3-----3p2-|
 |-----2---------0----0h2--2------------|
 |--2-----------0----2----0-------2-----|
 |-0--------0h2-----3-----------0-------|
 |-------0h3----------------------------|

 Verse
 A                   G
 Dead leaves and the dirty ground 
        C            D    A
 when I know you're not around
 A               G
 Shiny tops and soda pops 
         C              D      A
 when I hear your lips make a sound
         F5       G5           A
 when I hear your lips make a sound

 Post-Verse
  A     G     C    D    A
 |-0--0--3--3-------------------|
 |-2--2--3--3-------2-2--2------|
 |-2--2--0--0--0-0--3-3--2---2--|
 |-2--2--0--0--2-2--0-0--2---2--|
 |-0--0--2--2--3-3-------0---0--|
 |-------3--3-------------------|

 Verse 2 Pt.1
 |-------------------|
 |-------------------|
 |-------------------|
 |-------------------|
 |-------------------|
 |-5----3----2--1--5-|

 Bridge
 |-2--2--2--2--2--2--2--2----------------------------
 |-3--3--3--3--3--3--3--3--0--2--2--2--20-2--2--2--2-
 |-2--2--2--2--2--2--2--2--0--2--2--2--20-2--2--2--2-
 |-0--0--0--0--0--0--0--0--0--2--2--2--20-2--2--2--2-
 |---------------------------------------------------
 |---------------------------------------------------

 -2--2--2--2--2--2--2--2---------------------------|
 -3--3--3--3--3--3--3--3---------------------------|
 -2--2--2--2--2--2--2--2---------------------------|
 -0--0--0--0--0--0--0--0--3--3--3--3--5--5--5--5---|
 -------------------------3--3--3--3--5--5--5--5-5-|
 -------------------------1--1--1--1--3--3--3--3-3-|

Order
Intro Pt.1 x 2
Intro Pt.2 x 2
Intro Pt.3 X 2
Verse x 2
Post-verse x 2
Verse 2 Pt.1 x 1
Carry on verse
Post verse x 2
Bridge
Verse 2 Pt.1 x 1
Carry on Verse
Intro Pt.3 x 2
Finish with F5 G5 A

 Ta daa...This is a great song to play, and sounds even
better with a drummer to accompany you. Send any comments,
suggestions, business proposals etc. to [email protected]


Текст, аккорды и табулатура для песни "Dead Leaves And The Dirty Ground", исполняет "White Stripes".
Используемые в песне аккорды можно найти в разделе Как брать аккорды. Аккорды для шестиструнной гитары. Другие песни можно найти на нашем сайте, воспользовавшись алфавитным указателем вверху страницы.


 
Ошибка в тексте? Выделите ошибку и нажмите Ctrl+Enter