Artist: The White Stripes.
Song: Dead Leafs And The Dirty Ground.
Album: White Blood Cells.
Transcribed By: Paul
E-mail: [email protected]

My guitar teacher tought me this song so I thouht I shoud tab it.
It's played in standard tuning (eadgbe).

                               intro.
E|----------------------------------------------------------------------|
B|----------------------------------------------------------------------|
G|----------------------------------------------------------------------|
D|----------------------------------------------------------------------|
A|----------------------------------------------------------------------|
E|-5-5-5-0-3-3-3-0-2-2-0-1-1-0-5-5-0-5-5-5-0-3-3-3-0-2-2-0-1-1-0-5---3--|

                  
E|---------------------------------------------------------------------------|
B|---------------------------------------------------------------------------|
G|---------------------------------------------------------------------------|
D|-7-7-7----5-5-5---4-4---3-3----7-7--7-7-7---5-5-5---4-4---3-3----7--5------|
A|-7-7-7----5-5-5---4-4---3-3----7-7--7-7-7---5-5-5---4-4---3-3----7--5------|
E|-5-5-5--0-3-3-3-0-2-2-0-1-1-0--5-5--5-5-5-0-3-3-3-0-2-2-0-1-1----5--3------|


E|----------------------------------------------------------------------------|
B|-2---2h3p2----------0---------------------2---2---2---2h3p2--------0--------|
G|-2----------------0-----------0------2----2-------2--------------0-------0--|
D|-2--------------0-----------2------4------2-------2------------0-------2----|
A|-0-0----------------------3------5--------0-0---0-0-0----------------3------|
E|------------3h----------------------------------------------3h--------------|


E|---------------------------|
B|--------2---2---2----------|
G|-----2--2-------2----------|
D|---4----2-------2----------|
A|-5------0-0---0-0----------|
E|---------------------------|

            Light Palm Mute 
E|------------------------------|
B|-2-2--3-3--1-1--3-3---2-------|
G|-2-2--0-0--0-0--2-2---2-------|
D|-2-2--0-0--2-2--4-4---2-------|
A|-0-0-------3-3--5-5---0-------|
E|------3-3---------------------|

               Chorus repeat 2x
E|-------------------------------------------------|
B|-------------------------------------------------|
G|---------------------5----5----7----7------------|
D|-7----7----5----5----5----5----7----7----7-------|
A|-7----7----5----5----3----3----5----5----7-------|
E|-5----5----3----3------------------------5-------|

                           Interlude
E|----------------------------------------------------------------------------|
B|----------------------------------------------------------------------------|
G|-7-7-7-7-7-7-7-7------------------------7-7-7-7-7-7-7-7---------------------|
D|-7-7-7-7-7-7-7-7-0-7-7-7--7-5-7-7-7-7-0-7-7-7-7-7-7-7-7-0--3-3-3-3-3-5-5----|
A|-5-5-5-5-5-5-5-5-0-7-7-7--7-5-7-7-7-7-0-5-5-5-5-5-5-5-5-0--3-3-3-3-3-5-5----|
E|-----------------0-5-5-5--5-3-5-5-5-5-0-----------------0--1-1-1-1-1-3-3----|

           End on this
E|------------------------------------|
B|-2-2-3-3--------1--------3--2-------|
G|-2-2-0-0------0--------2----2-------|
D|-2-2-0-0----2--------4------2-------|
A|-0-0------3--------5--------0-------|
E|-----3-3----------------------------|


That's It hope you like it. Any questions or comments just E-mail me.


Текст, аккорды и табулатура для песни "Dead Leaves And The Dirty Ground", исполняет "White Stripes".
Используемые в песне аккорды можно найти в разделе Как брать аккорды. Аккорды для шестиструнной гитары. Другие песни можно найти на нашем сайте, воспользовавшись алфавитным указателем вверху страницы.


 
Ошибка в тексте? Выделите ошибку и нажмите Ctrl+Enter