-------------------------------------------------------------------------------
			     CANNON - The White Stripes
-------------------------------------------------------------------------------
Tabbed by:Aaron of AaronH.co.uk
Email:[email protected]

Tuning:Normal

fig1
e|--0---12---7---7---6---6---6---6---5---3-----------------------------------|
B|---------------------------------------------------------------------------|
G|---------------------------------------------------------------------------|
D|---------------------------------------------------------------------------|
A|---------------------------------------------------------------------------|
E|---------------------------------------------------------------------------|

fig2
e|---------------------------------------------------------------------------|
B|---------------------------------------------------------------------------|
G|---------------------------------------------------------------------------|
D|----666----------------------------------9-9--5-5--2-2---------------------|
A|----666----------------------------------9-9--5-5--2-2---------------------|
E|----444----------------------------------7-7--3-3--0-0---------------------|
       ^continue during john the revelator

Listen to the song for the rhythm and lyrics


Текст, аккорды и табулатура для песни "Cannon", исполняет "White Stripes".
Используемые в песне аккорды можно найти в разделе Как брать аккорды. Аккорды для шестиструнной гитары. Другие песни можно найти на нашем сайте, воспользовавшись алфавитным указателем вверху страницы.


 
Ошибка в тексте? Выделите ошибку и нажмите Ctrl+Enter