Artist-Wheatus
Song-Teenage Dirtbag
[email protected]

This is the way I play the songVerse 1 (Her Name is Noel…)
G: -------------------------------------------------------------|
D: -------------------------------------------------------------|
A: ----------------------2--2----------------------------0--0--|
E: -----0--0-----------------------------0--0------------------|
Verse 2 (But she doesn’t know who I am…)

G: --------------------------------|
D: --------------------------------|
A: ----00-x22-x22-44-00-22-22----|
E: -44-----------------------------| 

Chorus 1 (Cos I’m just a teenage dirtbag baby…)
G: ---------------------|
D: ------------6---4----|
A: ----00-22-4---2-----|
E: -00------------------|

Chorus 2 (Listen to Iron Maiden, baby…with me. Ooh)

G: --------------------------|
D: -------------6---4---2---4|
A: ----00-22-4---2---0---2---|
E: -00-----------------------|

Bridge 1 (Ooh yeah…dirtbag, No she doesn’t know what she’s missin’…)
G: -----------------------------|
D: -----------------------------|
A: --------2--0--------2--0-----|
E: --0-0---------0-0------------|

Bridge 2 (No she doesn’t know what she’s missin’…-2nd time)
G: -------------------------------------|
D: ---------------------6---4---2---4---|
A: -------2--0--------4---2---0---2-----|
E: --0-0--------0-0---------------------|

Quiet Part 2 (I’ve got two tickets to Iron Maiden baby, Come with me Friday…)
G: -------------------------------------------------|
D: ---------------------------------6---4-----------|
A: ------------0-0-0-0--2-2-2-2---4---2------------|
E: -0-0-0-0-----------------------------------------|

Quiet Part 2 (I’m just a teenage dirtbag, baby…like you. Ooh.)
G: ----------------------------------------------------------|
D: ----------------------------------6---4---2---4-----------|
A: -------------0-0-0-0--2-2-2-2---4---2---0---2------------|
E: -0-0-0-0--------------------------------------------------|

Ending 
G: ----------------------------------------------------|
D: ----------------------------------------------------|
A: --------------2-2-----------------------0-0---------|
E: -0-0-----------------------0-0--------------4-------|

G: ---------------------------------------------------------------------|
D: ---------------------------------------------------------------------|
A: --------------2-2--------------------0-------------------------------|
E: -0-0-----------------------0-0--------------5--4-2h4-2-------------0|
Order

No Bass in IntroVerse 1 x 2
Verse 2 
Chorus 1 x 3
Chorus 2 
Verse 1 x 2
Verse 2 
Chorus 1 x 3
Chorus 2
Bridge 1 
Bridge 2
Verse 1 x 2
Quiet Part 1 x 3
Quiet Part 2
Bridge 1
Bridge 2
Ending


Текст, аккорды и табулатура для песни "Teenage Dirtbag", исполняет "Wheatus".
Используемые в песне аккорды можно найти в разделе Как брать аккорды. Аккорды для шестиструнной гитары. Другие песни можно найти на нашем сайте, воспользовавшись алфавитным указателем вверху страницы.


Слушать онлайн Teenage Dirtbag


WheatusTeenage Dirtbag на Яндекс.Музыке


 
Ошибка в тексте? Выделите ошибку и нажмите Ctrl+Enter