#----------------------------------PLEASE NOTE--------------------------------#
#This file is the author's own work and represents their interpretation of the#
#song. You may only use this file for private study, scholarship, or research.#
#-----------------------------------------------------------------------------#
#-- File created with Instab - http://www.pconline.com/~smcarey/instab.html --#
#-----------------------------------------------------------------------------#

Author/Artist: wheatus
Title: teenage dirtbag
Album: ?
Transcribed by: luke (punk rocker)
Email: [email protected]

[email protected]-------------
-5-5-5-5-5-5-5-5--------------------------------------------------------------
------------------------------------------------------------------------------
------------------------------------------------------------------------------
------------------------------------------------------------------------------
------------------------------------------------------------------------------
 -Chorus-  add distortion if u want for the full effect ,so to speak          

------------------------------------------------------------------------------
------------------------------------------------------------------------------
------2-2---4-4---------------------------------------------------------------
-2-2--2-2---4-4---------6-----------------------------------------------------
-2-2--0-0---2-2------4-------6------------------------------------------------
-0-0----------------------4---------------------------------------------------
                                                                              

------------------------------------------------------------------------------
------------------------------------------------------------------------------
------2-2--4-4----------------------------------------------------------------
-2-2--2-2--4-4-------6--------------------------------------------------------
-2-2--0-0--2-2-----4-----6---7---9--------------------------------------------
-0-0-------------------4---5---7----------------------------------------------
 the iron maiden part                                                         

------------------------------------------------------------------------------
------------------------------------------------------------------------------
----------2-2-2-2--4-4-4-4----------------------------------------------------
-2-2-2-2--2-2-2-2--4-4-4-4--------6-------------------------------------------
-2-2-2-2--0-0-0-0--2-2-2-2------4-----6---------------------------------------
-0-0-0-0----------------------------4-----------------------------------------
 p.m...................................                                       

------------------------------------------------------------------------------
------------------------------------------------------------------------------
----------2-2-2-2--4-4-4-4----------------------------------------------------
-2-2-2-2--2-2-2-2--4-4-4-4-----6----------------------------------------------
-2-2-2-2--0-0-0-0--2-2-2-2---4-----6----7---9---------------------------------
-0-0-0-0-------------------------4----5---7-----------------------------------
 p.m............                                                              

-0-0-0---0---0-0-0--0--0-0-0---0----------------------------------------------
-0-0-0---0---0-0-0--0--0-0-0---0----------------------------------------------
-1-1-1---0---1-1-1--0--1-1-1---0----------------------------------------------
-2-2-2---9---2-2-2--9--2-2-2---9----------------------------------------------
-2-2-2---9---2-2-2--9--2-2-2---9----------------------------------------------
-0-0-0---7---0-0-0--7--0-0-0---7----------------------------------------------
                                                                              

---------------0--------------------------------------------------------------
---------------0--------------------------------------------------------------
---------------1--------------------------------------------------------------
-2-------------2--------------------------------------------------------------
-0-------------2--------------------------------------------------------------
----4-2-4-2----0--------------------------------------------------------------
                                                                              




Текст, аккорды и табулатура для песни "Teenage Dirtbag", исполняет "Wheatus".
Используемые в песне аккорды можно найти в разделе Как брать аккорды. Аккорды для шестиструнной гитары. Другие песни можно найти на нашем сайте, воспользовавшись алфавитным указателем вверху страницы.


Слушать онлайн Teenage Dirtbag


WheatusTeenage Dirtbag на Яндекс.Музыке


 
Ошибка в тексте? Выделите ошибку и нажмите Ctrl+Enter