Artist : Wheatus
Song : I’d Never Write A Song About You
Tabbed by : Chris ([email protected])

Intro and Verse :

G|-------------------------------------------------------------------------
D|-------------------------------------------------------------------------
A|----------4-4--2-2-------------------------------------------------------
E|--0-0--------------------------------------------------------------------

Chorus :

G|------------------------------------------------------------------------
D|------------------------------------------------------------------------
A|--------------------------0--2----------------0--2----------------------
E|--0-0-0-0-2-2-2-2-4-4-4-4-------0-0--2-2--4-4---------------------------

Riff 1 :

G|------------------------------------------------------------------------
D|------------------------------------------------------------------------
A|---------4-2----------4-2-4--------4-2----------------------------------
E|--0-0--------0-0----4-------0-0---------0-0-----------------------------

Riff 2 :

G|------------------------------------------------------------------------
D|-----------------6------------------------------------------------------
A|------0-0------4-----6--------------------------------------------------
E|--2-2-----0-0------4----------------------------------------------------

Fourth time (riff 2) :

G|------------------------------------------------------------------------
D|------------------------------------------------------------------------
A|------0-0-2-2-2-2-2-2-2-2-2-2-2-2---------------------------------------
E|--2-2-------------------------------------------------------------------

Intro x4
Verse x4
Chorus x2
Riff 1 x1
Verse x4
Chorus x2
Riff 1 x1
Riff 2 x3 + 1
Guitar and voice only
Chorus x2
Riff 1 x2 -> second time :

G|---------------------
D|---------------------
A|---------7-6---------
E|--0-0----------------


Текст, аккорды и табулатура для песни "Id Never Write A Song About You", исполняет "Wheatus".
Используемые в песне аккорды можно найти в разделе Как брать аккорды. Аккорды для шестиструнной гитары. Другие песни можно найти на нашем сайте, воспользовавшись алфавитным указателем вверху страницы.


 
Ошибка в тексте? Выделите ошибку и нажмите Ctrl+Enter