This tab is the real tab for this song unlike others on this site...

 C      Csus4      G     Gsus4     E    Esus4    F    Asus2   Am
-0--------x--------3-------3-------0------0------1------0------0----
-1--------1--------0-------1-------0------0------1------0------1----
-0--------0--------0-------0-------1------2------2------2------2----
-2--------3--------0-------0-------2------2------3------2------2----
-3--------3--------x-------x-------2------2------3------0------0----
-x--------x--------3-------3-------0------0------1------x------x----

   Em       g/b 
---0---------x----------------------
---0---------3----------------------
---0---------0----------------------
---2---------0----------------------
---2---------2----------------------
---0---------x----------------------

              C      Csus4
  I tried to discover______

C          Csus4        G        Gsus4    g 
  A little something to make me sweeter

     Gsus4   E    Esus4 E        Esus4        F
  Oh baby refrain          from breaking my heart
            
            C        Csus4
  Im so in love with you

C       Csus4     G     Gsus4  G
   I'll be     forever   blue

  Gsus4                 F
  That you give me no reason
            
                          Asus2    Am
  You know your making me work so hard

  G
  That you give me no, that you give me no
  That you give me no, that you give me no

  C    Csus4  C    Csus4     Asus2    am
  Soul___________I hear you  call  -  ing

asus2  am  F 
  oh baby please ( give me little respect to me)
   
                     Em   F    G   
  Give me little respect to ____ (me)

  C  Csus4  C csus4   C csus4  c 
  me _____________________________________



i really cant be bothered to finish this off but its exactly the same layout for
the rest of the song


Текст, аккорды и табулатура для песни "A Little Respect", исполняет "Wheatus".
Используемые в песне аккорды можно найти в разделе Как брать аккорды. Аккорды для шестиструнной гитары. Другие песни можно найти на нашем сайте, воспользовавшись алфавитным указателем вверху страницы.


Слушать онлайн A Little Respect


WheatusA Little Respect на Яндекс.Музыке


 
Ошибка в тексте? Выделите ошибку и нажмите Ctrl+Enter