==============================WEEZER - Slob==============================

Tabbed By:  The Spuz (http://www.xboxadict.com)
NOTE: This isn't from the song book, but it sounds good with the cd,
so what can I say?

E------------------------------------
B---------5-----------------5--------
G-----6------6---6------6-----6---6--
D-------6------6----------6-----6----
A--4-----------------4---------------
E------------------------------------

E------------------------------------
B---------5-----------------5--------
G-----6------6---6------6-----6---6--
D-------6------6----------6-----6----
A--4-----------------4---------------
E------------------------------------

E------------------------------------
B---------5-----------------5--------
G-----6------6---6------6-----6---6--
D-------6------6----------6-----6----
A--4-----------------4---------------
E------------------------------------
   Leave                    Me

E------------------------------------
B----------4-----------------4-------
G-----5-------5---5------5-----5---5-
D-------6-------6----------6-----6---
A------------------------------------
E--4------------------4--------------
   Alone                     I wont

E------------------------------------
B----------4-----------------5-------
G-----5-------5---5------6-----6---6-
D-------6-------6----------7-----7---
A------------------------------------
E--4------------------5--------------

   Pick          Up the phone

E--------------------------------------------------
B---------9---------------7---------------5-----8--
G-----9-----9---9-----8-----8---8----6------6------
D-------9-----9---------9-----9--------7------7----
A--7-----------------------------------------------
E------------------7---------------5---------------
   And I won't listen to messages

E--------------------------------------------------
B---------9---------------7---------------5-----8--
G-----9-----9---9-----8-----8---8----6------6------
D-------9-----9---------9-----9--------7------7----
A--7-----------------------------------------------
E------------------7---------------5---------------
   left by some one who calls up and says

E--------------------------------------------------------------------
B---------9---------------7------------------------------------------
G-----9-----9---9-----8-----8---8----6-6-6-6-6-6-6-6-6-6-6-6-6-6-6-6-
D-------9-----9---------9-----9------7-7-7-7-7-7-7-7-7-7-7-7-7-7-7-7-
A--7---------------------------------7-7-7-7-7-7-7-7-7-7-7-7-7-7-7-7-
E------------------7-----------------5-5-5-5-5-5-5-5-5-5-5-5-5-5-5-5-
  I don't like how you're living my life              Get yourself a

E-----------------------------------------
B-----------------------------------------
G--5-5-5-5-5-5-5-5-5-5-5-5-5-5-5-5-5-5----
D--6-6-6-6-6-6-6-6-6-6-6-6-6-6-6-6-6-6----
A--6-6-6-6-6-6-6-6-6-6-6-6-6-6-6-6-6-6----
E--4-4-4-4-4-4-4-4-4-4-4-4-4-4-4-4-4-4----
   Wife                 Get yourself a

E-----------------------------------------
B-----------------------------------------
G--6-6-6-6-6-6-6-6-6-6-6-6-6-6-6-6-6-6----
D--7-7-7-7-7-7-7-7-7-7-7-7-7-7-7-7-7-7----
A--7-7-7-7-7-7-7-7-7-7-7-7-7-7-7-7-7-7----
E--5-5-5-5-5-5-5-5-5-5-5-5-5-5-5-5-5-5----
   Job                  You're Living a

E-----------------------------------------
B-----------------------------------------
G-----------------------------------------
D--9-9-9-9-9-9-9-9-9-9-9-9-9-9-9-9-9-9----
A--9-9-9-9-9-9-9-9-9-9-9-9-9-9-9-9-9-9----
E--7-7-7-7-7-7-7-7-7-7-7-7-7-7-7-7-7-7----
   Dream                Don't you be a

E------------------------------------
B---------5-----------------5--------
G-----6------6---6------6-----6---6--
D-------6------6----------6-----6----
A--4-----------------4---------------
E------------------------------------
   Slob

E------------------------------------
B---------5-----------------5--------
G-----6------6---6------6-----6---6--
D-------6------6----------6-----6----
A--4-----------------4---------------
E------------------------------------

E------------------------------------
B---------5-----------------5--------
G-----6------6---6------6-----6---6--
D-------6------6----------6-----6----
A--4-----------------4---------------
E------------------------------------
   Leave                    Me

E------------------------------------
B----------4-----------------4-------
G-----5-------5---5------5-----5---5-
D-------6-------6----------6-----6---
A------------------------------------
E--4------------------4--------------
   Again                dont hang out

E------------------------------------
B----------4-----------------5-------
G-----5-------5---5------6-----6---6-
D-------6-------6----------7-----7---
A------------------------------------
E--4------------------5--------------

              in my den       waiting

E----------------------------------------------------
B--------------------------------------------------8-
G--9-9-9-9-9-9-9-9-----------------------------------
D--9-9-9-9-9-9-9-9-9-9-9-9-9-9-9-9-7-7-7-7-7-7-7-7---
A--7-7-7-7-7-7-7-7-9-9-9-9-9-9-9-9-7-7-7-7-7-7-7-7---
E------------------7-7-7-7-7-7-7-7-5-5-5-5-5-5-5-5---
   for little      clues    to     appear

E----------------------------------------------------
B--------------------------------------------------8-
G--9-9-9-9-9-9-9-9-----------------------------------
D--9-9-9-9-9-9-9-9-9-9-9-9-9-9-9-9-7-7-7-7-7-7-7-7---
A--7-7-7-7-7-7-7-7-9-9-9-9-9-9-9-9-7-7-7-7-7-7-7-7---
E------------------7-7-7-7-7-7-7-7-5-5-5-5-5-5-5-5---
   that I          drank some of   grand daddie's beer I don't

E------------------------------------------------------------------
B------------------------------------------------------------------
G--9-9-9-9-9-9-9-9-------------------------------------------------
D--9-9-9-9-9-9-9-9-9-9-9-9-9-9-9-9-7-7-7-7-7-7-7-7-7-7-7-7-7-7-7-7-
A--7-7-7-7-7-7-7-7-9-9-9-9-9-9-9-9-7-7-7-7-7-7-7-7-7-7-7-7-7-7-7-7-
E------------------7-7-7-7-7-7-7-7-5-5-5-5-5-5-5-5-5-5-5-5-5-5-5-5-
   like how you're living          my life          get yourself a 

E------------------------------------------------------------------
B------------------------------------------------------------------
G------------------------------------------------------------------
D--6-6-6-6-6-6-6-6-6-6-6-6-6-6-6-6-7-7-7-7-7-7-7-7-7-7-7-7-7-7-7-7-
A--6-6-6-6-6-6-6-6-6-6-6-6-6-6-6-6-7-7-7-7-7-7-7-7-7-7-7-7-7-7-7-7-
E--4-4-4-4-4-4-4-4-4-4-4-4-4-4-4-4-5-5-5-5-5-5-5-5-5-5-5-5-5-5-5-5-
   wife             get yourself a job             you're living a

E----------------------------------
B----------------------------------
G----------------------------------
D--9-9-9-9-9-9-9-9-9-9-9-9-9-9-9-9-
A--9-9-9-9-9-9-9-9-9-9-9-9-9-9-9-9-
E--7-7-7-7-7-7-7-7-7-7-7-7-7-7-7-7-
   Dream            don't you be a

E----------------------------------
B--5---5---5-5---5---5-5-5-5-5-5-5-
G--6---6---6-6---6---6-6-6-6-6-6-6-
D--6---6---6-6---6---6-6-6-6-6-6-6-
A--4---4---4-4---4---4-4-4-4-4-4-4-
E----------------------------------

E----------------------------------
B--5---5---5-5---5---5-5-5-5-5-5-5-
G--6---6---6-6---6---6-6-6-6-6-6-6-
D--6---6---6-6---6---6-6-6-6-6-6-6-
A--4---4---4-4---4---4-4-4-4-4-4-4-
E----------------------------------
slob

E------------------------------------------------------------------
B------------------------------------------------------------------
G--4---4---4-4---4---4-4-4-4-4-4-4-5---5---5-5---5---5-5-5-5-5-5-5-
D--4---4---4-4---4---4-4-4-4-4-4-4-5---5---5-5---5---5-5-5-5-5-5-5-
A--2---2---2-2---2---2-2-2-2-2-2-2-3---3---3-3---3---3-3-3-3-3-3-3-
E------------------------------------------------------------------
   slob
 
E---------------
B--4---5--4--2--
G---------------
D---------------
A---------------
E---------------

E--9----9--12--------------------------------------------------
B--------------7----13-12h13---12----9--14--12---9-7--7-8-7--5-
G--------------------------------------------------------------
D--------------------------------------------------------------
A--------------------------------------------------------------
E--------------------------------------------------------------
                                                        waiting

E----------------------------------------------------
B--------------------------------------------------8-
G--9-9-9-9-9-9-9-9-----------------------------------
D--9-9-9-9-9-9-9-9-9-9-9-9-9-9-9-9-7-7-7-7-7-7-7-7---
A--7-7-7-7-7-7-7-7-9-9-9-9-9-9-9-9-7-7-7-7-7-7-7-7---
E------------------7-7-7-7-7-7-7-7-5-5-5-5-5-5-5-5---
   for      little clues        to appear     that I

E----------------------------------------------------
B--------------------------------------------------8-
G--9-9-9-9-9-9-9-9-----------------------------------
D--9-9-9-9-9-9-9-9-9-9-9-9-9-9-9-9-7-7-7-7-7-7-7-7---
A--7-7-7-7-7-7-7-7-9-9-9-9-9-9-9-9-7-7-7-7-7-7-7-7---
E------------------7-7-7-7-7-7-7-7-5-5-5-5-5-5-5-5---
   drank   some of grand daddies   beer    I don't

E------------------------------------------------------------------
B------------------------------------------------------------------
G--9-9-9-9-9-9-9-9-------------------------------------------------
D--9-9-9-9-9-9-9-9-9-9-9-9-9-9-9-9-7-7-7-7-7-7-7-7-7-7-7-7-7-7-7-7-
A--7-7-7-7-7-7-7-7-9-9-9-9-9-9-9-9-7-7-7-7-7-7-7-7-7-7-7-7-7-7-7-7-
E------------------7-7-7-7-7-7-7-7-5-5-5-5-5-5-5-5-5-5-5-5-5-5-5-5-
   like how you're living       my life             get yourself a

E------------------------------------------------------------------
B------------------------------------------------------------------
G------------------------------------------------------------------
D--6-6-6-6-6-6-6-6-6-6-6-6-6-6-6-6-7-7-7-7-7-7-7-7-7-7-7-7-7-7-7-7-
A--6-6-6-6-6-6-6-6-6-6-6-6-6-6-6-6-7-7-7-7-7-7-7-7-7-7-7-7-7-7-7-7-
E--4-4-4-4-4-4-4-4-4-4-4-4-4-4-4-4-5-5-5-5-5-5-5-5-5-5-5-5-5-5-5-5-
   wife             get yourself a job             you're living a

E----------------------------------
B----------------------------------
G----------------------------------
D--9-9-9-9-9-9-9-9-9-9-9-9-9-9-9-9-
A--9-9-9-9-9-9-9-9-9-9-9-9-9-9-9-9-
E--7-7-7-7-7-7-7-7-7-7-7-7-7-7-7-7-
   dream            don't you be a
E----------------------------------
B--5---5---5-5---5---5-5-5-5-5-5-5-
G--6---6---6-6---6---6-6-6-6-6-6-6-
D--6---6---6-6---6---6-6-6-6-6-6-6-
A--4---4---4-4---4---4-4-4-4-4-4-4-
E----------------------------------
   slob

E----------------------------------
B--5---5---5-5---5---5-5-5-5-5-5-5-
G--6---6---6-6---6---6-6-6-6-6-6-6-
D--6---6---6-6---6---6-6-6-6-6-6-6-
A--4---4---4-4---4---4-4-4-4-4-4-4-
E----------------------------------

E------------------------------------------------------------------
B------------------------------------------------------------------
G--4---4---4-4---4---4-4-4-4-4-4-4-5---5---5-5---5---5-5-5-5-5-5-5-
D--4---4---4-4---4---4-4-4-4-4-4-4-5---5---5-5---5---5-5-5-5-5-5-5-
A--2---2---2-2---2---2-2-2-2-2-2-2-3---3---3-3---3---3-3-3-3-3-3-3-
E------------------------------------------------------------------
   slob

E---------------
B--4---5--4--2--
G---------------
D---------------
A---------------
E---------------


Текст, аккорды и табулатура для песни "Slob", исполняет "Weezer".
Используемые в песне аккорды можно найти в разделе Как брать аккорды. Аккорды для шестиструнной гитары. Другие песни можно найти на нашем сайте, воспользовавшись алфавитным указателем вверху страницы.


 
Ошибка в тексте? Выделите ошибку и нажмите Ctrl+Enter