-------------------------------------------------------------------------------
			     Photograph - Weezer

By: steidl705          This is 100% Correct, Straight from the book.

Verse
e|---------------------------------------------------------------------------|
B|---------------------------------------------------------------------------|
G|---------------------------------------7-7-7-7--9-9-9-9--11-11-11-11-11-11-|
D|--7--7-7-7-7-7-7-7--4-4-4-4-4-4-4-4-4--7-7-7-7--9-9-9-9--11-11-11-11-11-11-|
A|--7--7-7-7-7-7-7-7--4-4-4-4-4-4-4-4-4--5-5-5-5--7-7-7-7—-9—-9—-9—-9-—9—-9--|
E|--5--5-5-5-5-5-5-5--2-2-2-2-2-2-2-2-2--5-5-5-5--7-7-7-7--9—-9-—9-—9-—9-—9-—|
  If you want it,  You can have it, but you gotta learn to… 

e|---------------------------------------------------------------------------|
B|---------------------------------------------------------------------------|
G|-7-7-7-7--9-9-9-9---------------------7-7-7-7--9-9-9-9---------------------|
D|-7-7-7-7--9-9-9-9--7-7-7-7-7-7-7-7----7-7-7-7--9-9-9-9--7-7-7-7-7-7-7-7----|
A|-5-5-5-5--7-7-7-7--7-7-7-7-7-7-7-7----5-5-5-5--7-7-7-7--7-7-7-7-7-7-7-7----|
E|-5-5-5-5--7-7-7-7--5-5-5-5-5-5-5-5----5-5-5-5--7-7-7-7--5-5-5-5-5-5-5-5----|


e|---------------------------------------------------------------------------|
B|---------------------------------------------------------------------------|
G|-7-7-7-7--9-9-9-9--6-6-6-6------------7-7-7-7-7-7-7-7--9-9-9-9-9-9-9-9-----|
D|-7-7-7-7--9-9-9-9--6-6-6-6--4-4-4-4---7-7-7-7-7-7-7-7--9-9-9-9-9-9-9-9-----|
A|-5-5-5-5--7-7-7-7--4-4-4-4--4-4-4-4---5-5-5-5-5-5-5-5--7-7-7-7-7-7-7-7-----|
E|-5-5-5-5--7-7-7-7-----------2-2-2-2---5-5-5-5-5-5-5-5--7-7-7-7-7-7-7-7-----|


Chorus
e|---------------------------------------------------------------------------|
B|---------------------------------------------------------------------------|
G|-6-6-6-6-6-6-6-------------------------6-6-6-6-6-6-6-----------------------|
D|-6-6-6-6-6-6-6---4-4-4-4-4--7-7-7------6-6-6-6-6-6-6---4-4-4-4-4--7-7-7----|
A|-4-4-4-4-4-4-4---4-4-4-4-4--7-7-7------4-4-4-4-4-4-4---4-4-4-4-4--7-7-7----|
E|-4-4-4-4-4-4-4-0-2-2-2-2-2--5-5-5------4-4-4-4-4-4-4-0-2-2-2-2-2--5-5-5----|
     It’s in the photograph                It’s in the photograph

e|---------------------------------------------------------------------------|
B|---------------------------------0--2--------------------------------------|
G|-7-7-7-7-7-7-7-7-7------------------4--------------------------------------|
D|-7-7-7-7-7-7-7-7-7--9-9-9-9-9-9--------------------------------------------|
A|-5-5-5-5-5-5-5-5-5--9-9-9-9-9-9--------------------------------------------|
E|-5-5-5-5-5-5-5-5-5--7-7-7-7-7-7--------------------------------------------|
        It’s in the photograph of love

Solo
e|---------------------------------------------------------------------------|
B|----------------------10-----10--10--12--14—-12-12-12-12--10-10-10-10------|	
G|---------6-------------X--9---X---X---X---X---X--X--X--X---X--X--X--X------|
D|-7-7-7--------7-7-7----7--X---7---7---9--11---9--9--9--9---7--7--7--7------|
A|-----------7--------------7------------------------------------------------|
E|---------------------------------------------------------------------------|

Outro Verse
e|---------------------------------------------------------------------------|
B|---------------------------------------------------------------------------|
G|--------------------------------------7-7-7-7--9-9-9-9---------------------|
D|---7-7-7-7-7-7-7-7---4-4-4-4-4-4-4-4--7-7-7-7--9-9-9-9---------------------|
A|---7-7-7-7-7-7-7-7---4-4-4-4-4-4-4-4--5-5-5-5--7-7-7-7---------------------|
E|---5-5-5-5-5-5-5-5---2-2-2-2-2-2-2-2--5-5-5-5--7-7-7-7---------------------|
   If you blew it don’t reject it…  

e|---------------------------------------------------------------------------|
B|---------------------------------------------------------------------------|
G|------------------7-7-7-7--9-9-9-9-----------------------------------------|
D|-7-7-7-7-7-7-7-7--7-7-7-7--9-9-9-9--7-7-7-7-7-7-7-7------------------------|
A|-7-7-7-7-7-7-7-7--5-5-5-5--7-7-7-7--7-7-7-7-7-7-7-7------------------------|
E|-5-5-5-5-5-5-5-5--5-5-5-5--7-7-7-7--5-5-5-5-5-5-5-5------------------------|


Текст, аккорды и табулатура для песни "Photograph", исполняет "Weezer".
Используемые в песне аккорды можно найти в разделе Как брать аккорды. Аккорды для шестиструнной гитары. Другие песни можно найти на нашем сайте, воспользовавшись алфавитным указателем вверху страницы.


 
Ошибка в тексте? Выделите ошибку и нажмите Ctrl+Enter