-------------------------------------------------------------------------------
			     My Name Is Jonas - Weezer
-------------------------------------------------------------------------------

By:Joakim Sverker ([email protected])
Tunung: Ѕ a step down (d# g# c# f# a# d#)
 
Intro:
|---------------------------0------------------------------------0-----------|
|---1------1-------0----------0-----1--------1--------0------------0---------|
|-----0------0-------0-----------------2--------2--------0-------------------|
|-------2--------------0------------------2-----------------0----------------|
|-3-------------2----------------0-----------------2-------------------------|
|----------------------------------------------------------------------------|
 Play that twice

Then this:
|-----------------------------------|
|-----------------------------------|
|--5-5-5--------------------------5-|
|--5-5-5---5-5-5---7-7-7---3-3-3--5-|
|--3-3-3---5-5-5---7-7-7---3-3-3--3-|
|----------3-3-3---5-5-5---1-1-1----|
Then the intro once

And then this eight times:
|--------------------------------|
|--------------------------------|
|--5-5-5-------------------------|
|--5-5-5---5-5-5---7-7-7---3-3-3-|
|--5-5-5---5-5-5---7-7-7---3-3-3-|
|----------3-3-3---5-5-5---1-1-1-|

After that you play this four times:
|--------------------------------|
|--------------------------------|
|-5-5-5--------------------------|
|-5-5-5---7-7-7---5-5-5-5-5-5----|
|-3-3-3---7-7-7---5-5-5-5-5-5----|
|---------5-5-5---3-3-3-3-3-3----|

repeat all that once.

Then play this interlude:
|-5-5-5-5-5-5-7-7-7-7-7-7-8-8-8-8-8-8-10-10-10-10-10-10-10-12-12-12-12-12-12
|-x-x-x-x-x-x-x-x-x-x-x-x-x-x-x-x-x-x-x--x--x--x--x--x--x--x--x--x--x--x--x-
|-2-2-2-2-2-2-4-4-4-4-4-4-5-5-5-5-5-5-7--7--7--7--7--7--7--9--9--9--9--9--9-
|---------------------------------------------------------------------------
|---------------------------------------------------------------------------
|---------------------------------------------------------------------------

|-13-13-13-13-13-13-15-15-15-17-17-17-17-17-17-18-18-18-19-19-19-19-19-19|
|-x--x--x--x--x--x--x--x--x--x--x--x--x--x--x--x--x--x--x--x--x--x--x--x-|
|-10-10-10-10-10-10-12-12-12-14-14-14-14-14-14-16-16-16-16-16-16-16-16-16|
|------------------------------------------------------------------------|
|------------------------------------------------------------------------|
|------------------------------------------------------------------------|

|----------------------------|
|----------------------------|
|-5-5-5-5-5-5-5-5-5-5-5-5-5-5|
|-5-5-5-5-5-5-5-5-5-5-5-5-5-5| I'm not sure how long to play this
|-3-3-3-3-3-3-3-3-3-3-3-3-3-3|
|----------------------------|

|----------------------------------------------------------------------------
|---5------5-----5------5-----8-----8------8-------8------8-----10-----10----
|-----5------5-----5------5-------7-----7------7------9------9------9------9-
|--5-----5------7-----7------9-----9-----9-------10-----10-----10-----10-----
|----------------------------------------------------------------------------
|----------------------------------------------------------------------------

|---------------------------------------------------------------------------
|----12------12-------12------12-------13-----13------13-----13------15-----
|-------12------12-------12------12------12-----12------14-----14------16---
|-12-------12-------12------12-------14-----14------14-----14------17-------
|---------------------------------------------------------------------------
|---------------------------------------------------------------------------

|--------------------------------12-----12-----12-----12---
|---15-----15-----15----15---------13-----13-----13-----13-
|-----16-----16-----16----16--14------14-----14-----14-----
|-17-----17-----17----17-----------------------------------
|----------------------------------------------------------
|----------------------------------------------------------

|---15------15-------17------19------|
|------15------15-------17------17---|
|-16------16-------17------17--------|
|------------------------------------|
|------------------------------------|
|------------------------------------|

|----------------------------------------------|
|----------------------------------------------|
|----------------------------------------------|
|-2--2-2-2-2-3--3-3-3-3--5--5-5-5-5-5--5-5-5-5-|
|-2--2-2-2-2-3--3-3-3-3--5--5-5-5-5-5--5-5-5-5-|
|-0--0-0-0-0-1--1-1-1-1--3--3-3-3-3-3--3-3-3-3-|

|------------------|
|------------------|
|------------------|
|-----0--2---------|
|--3---------------|

Play the intro and then finish the song on an open c (x3201x)...


Текст, аккорды и табулатура для песни "My Name Is Jonas", исполняет "Weezer".
Используемые в песне аккорды можно найти в разделе Как брать аккорды. Аккорды для шестиструнной гитары. Другие песни можно найти на нашем сайте, воспользовавшись алфавитным указателем вверху страницы.


 
Ошибка в тексте? Выделите ошибку и нажмите Ctrl+Enter