Artist: Weezer
Song: Keep Fishin' (Radio Edit)
Original Album: Maladroit
Written By: Rivers Cuomo
Tabbed by: Tom LeBlanc

Alright then, i want to clear something up. This tab is a combination of the 
best parts of three different tabs, all of which I have found on various sites 
around the net. There is a short acoustic or clean intro before the distortion 
kicks in, but I have not tabbed it because I just don't care. THIS SONG IS
PLAYED WITH TWO GUITARS. I have shown only the parts that are most prominent. 

To make the chorus sound like the song, you will need a 2nd guitar and that's
all there is to it. I set my amp to a rectified setting and keep it there for the
whole song. Send questions and death threats to:

[email protected]


INTRO/OUTRO
e|---------------------|
b|---------------------|
g|-----------9-9-9-9-x-|
d|-9-9-9-9-x-9-9-9-9-x-| 2X
a|-9-9-9-9-x-7-7-7-7-x-|
e|-7-7-7-7-x-----------|


VERSE PART ONE
e|---------------------|
b|---------------------|
g|-----------9-9-9-9-x-|
d|-9-9-9-9-x-9-9-9-9-x-| 2X
a|-9-9-9-9-x-7-7-7-7-x-|
e|-7-7-7-7-x-----------|
P.M.____________________


VERSE PART TWO
e|---------------------|
b|---------------------|
g|-----------6-6-6-6-x-|
d|-6-6-6-6-x-6-6-6-6-x-| 2X
a|-6-6-6-6-x-4-4-4-4-x-|
e|-4-4-4-4-x-----------|
P.M.____________________

chorus
e|-----------------------------------------|
b|-----------------------------------------|
g|-----------------------------------------|
d|-9-9-x-6-6-x-2-2-x-6-6-x-4-4-4-4-4-4-4-4-| 2X
a|-9-9-x-6-6-x-2-2-x-6-6-x-4-4-4-4-4-4-4-4-|
e|-7-7-x-4-4-x-0-0-x-4-4-x-2-2-2-2-2-2-2-2-|

Fill 1 - Guitar 2 (Played at end of first Chorus)

Play the first four notes fast, and the last four slow.
                                
e|------7---------------------
b|-9-h10--9-----11--7---------
g|----------------------8--6--
d|----------------------------
a|----------------------------
e|----------------------------

NOW PLAY THE VERSE AGAIN

THEN THE CHORUS

NOW PLAY THE NEXT PART

BRIDGE

e|-----------------------------------
b|-----------------------------------
g|---9-9-9-9-9-9-9-9-----------------
d|---9-9-9-9-9-9-9-9-9-9-9-9-9-9-9-9-
a|---7-7-7-7-7-7-7-7-9-9-9-9-9-9-9-9-
e|-------------------7-7-7-7-7-7-7-7-

e|-------------------------------------
b|-------------------------------------
g|-9-9-9-9-9-9-9-9---------------------
d|-9-9-9-9-9-9-9-9-9-9-9-9-6-6-6-6-----
a|-7-7-7-7-7-7-7-7-9-9-9-9-6-6-6-6-----
e|-----------------7-7-7-7-4-4-4-4-----

SOLO

Okay, there's a little fill that goes
right into the solo here. It follows
the same beat as the last half
of the fill that is on the end of the chorus
e|----------------
b|------------9---
g|---9--7---------
d|---------9------
a|----------------
e|----------------

then it goes right into the solo

e|---------------------------------------------------------
b|--9~-7~-----9-7-9-7--6h7--12-12-10-12----12----12--------
g|--9~-7~-------------------------------11----10----9-8b~--
d|--------9-7----------------------------------------------
a|---------------------------------------------------------
e|---------------------------------------------------------

NOW PLAY THE BRIDGE AGAIN

THEN THE FIRST PART OF THE VERSE

NOW THE OUTRO, WHICH IS THE SAME AS THE INTRO

SONG ORDER
Intro
Verse Part 1
Verse Part 2
Chorus
Verse Part 1
Verse Part 2
Chorus
Bridge
Solo
Chorus
Bridge
Verse Part 1
Outro
End on B5 (799xxx)


Текст, аккорды и табулатура для песни "Keep Fishing", исполняет "Weezer".
Используемые в песне аккорды можно найти в разделе Как брать аккорды. Аккорды для шестиструнной гитары. Другие песни можно найти на нашем сайте, воспользовавшись алфавитным указателем вверху страницы.


 
Ошибка в тексте? Выделите ошибку и нажмите Ctrl+Enter