Song : Hash Pipe
Band : Weezer
Tabbed By : Diamond Jerry ([email protected])

Standard Tuning

There's a lot bunch of crap for this tabs...enjoy it!!!
------------------------------------------------------------------------------

[Intro & Verse]
e|---------------------------------------------------------------------------|
B|---------------------------------------------------------------------------|
G|---------------------------------------------------------------------------| 3x
D|---------------------------------------------------------------------------|
A|--0-0-2/3--0-0-2/3--0-0-2/3--0-0-2/3--0-0-2/3--0-0-2/3--0-0-2/3--0-0-2/3---|
E|---------------------------------------------------------------------------|


[Pre-chorus]
e|---------|--------------------------------------|
B|---------|--------------------------------------|
G|---------|--7777777---------------------7777777-|
D|---------|--7777777---------------------7777777-|
A|-0-0-2-0-|--5555555---77-/9-/10--(4x)---5555555-|
E|---------|------------55-/7-/-8-----------------|


[Chorus]
e|---------------------------------------------------------------------------|
B|---------------------------------------------------------------------------|
G|-1010101010101010--999999999--777777777--555555555--4444-4444--------------|
D|-1010101010101010--999999999--777777777--555555555--4444-4444--------------|
A|--8-8-8-8-8-8-8-8--777777777--555555555--333333333--2222-2222--------------|
E|---------------------------------------------------------------------------|

-repeat verse-
-repeat pre-chorus & chorus-

[Post chorus]
e|--------------------|
B|--------------------|
G|--------------------|
D|--5-5-5-5-5-5-------|
A|--5-5-5-5-5-5-------|
E|--3-3-3-3-3-3-------|


[Solo] play along the verse....
e|---------------------------------------------------------------------------|
B|-13-13-13-13---12-12-12-12---10-10-10-10---8-8-8-8-------------------------|
G|-12-12-12-12---11-11-11-11----9--9--9--9---7-7-7-7-------------------------|
D|---------------------------------------------------------------------------|
A|---------------------------------------------------------------------------|
E|---------------------------------------------------------------------------|

e|---------------------------------------------------------------------------|
B|---------------------------------------------------------------------------|
G|--9-9-9-9---7-7-7-7---5-5-5-5---4-4-4-4------------------------------------|
D|--x-x-x-x---x-x-x-x---x-x-x-x---x-x-x-x------------------------------------|
A|--7-7-7-7---5-5-5-5---3-3-3-3---2-2-2-2------------------------------------|
E|---------------------------------------------------------------------------|

e|---------------------------------------------------------------------------|
B|---------------------------------------------------------------------------|
G|--12-12-12-12---11-11-11-11---9-9-9-9---7-7-7-7---16161616-/-14141414------|
D|---x--x--x--x----x--x--x--x---x-x-x-x---x-x-x-x----xxxxxxx-/--xxxxxxx------|
A|--10-10-10-10----9--9--9--9---7-7-7-7---5-5-5-5---14141414-/-12121212------|
E|---------------------------------------------------------------------------|

e|----------------------------|
B|----------------------------|
G|--16161616--/--14141414-----|
D|---xxxxxxx--/---xxxxxxx-----|
A|--14141414--/--12121212-----|
E|----------------------------|

------------------------------------------------------------------------------
the rest u should know!!!!!

Any comments or corrections,just mail me to [email protected]/ICQ #115343571


Текст, аккорды и табулатура для песни "Hash Pipe (ver 8)", исполняет "Weezer".
Используемые в песне аккорды можно найти в разделе Как брать аккорды. Аккорды для шестиструнной гитары. Другие песни можно найти на нашем сайте, воспользовавшись алфавитным указателем вверху страницы.


 
Ошибка в тексте? Выделите ошибку и нажмите Ctrl+Enter