Shy Of The Moon
Words and Music: Jakob Dylan
Tabbed By Ian ([email protected])
Standard Tuning

Intro: G (do a little pickin’ with this chord)                   

E----------------------------
B-2/3-3--2/3-3--2/3-3--2/3-3-
G-3/4-4--3/4-4--3/4-4--3/4-4-
D----------------------------
A----------------------------
E----------------------------


G											      
Pretty little girl on the side of the road, yellow hair in a yellow 
   Fill 1
bow, Little thumb stickin’ in the exit lane, two packs of smokes and a candy cane
(Fill Two)
E--0-0-0-------------0--3~-0----0--3~-0-------2-
B-0-3-1-1--1p0h1p0--0-0--------0-0--------------e
G----------------------------4b---------4b--1/2-c 
D-----------------------------------------------t
A-----------------------------------------------.
E-----------------------------------------------
  a haiuleah book...    stick...
C
Woman hips, baby lips, a haliuleah book in the back of the pick   	G
up stick

D
If she gets out of here too soon, she’ll run fast by the shy of 
         G
the moon (intro)


She’s been having the same old dreams
lullabys and pale blue skys(fill one)
Fallin’ asleep beneath the stars
Orion aims and shoots his arrows 
oh so far, he aims at heart
         (fill two)
He shoots the moon and takes it as his own reward
If she’s gonna see them stars too soon
She’ll run fast by the shy of the moon

Piano/Guitar/Organ Solos (continue your chords)


She found out so long ago, she wants more than all she knows
The river ends right as she goes(fill one)
Water breaks and she’s gone down
In the only tone
She’s below
               (fill two)
I’ll stand tall and hold up high my mistletoe
If she’s gonna shine just like brand new
So take my hand and we’ll run by the shy of the mo-oo-on


Fill One

E-----------|
B----3------|
G-2/4-4/2p0-|
D-----------|
A-----------|
E-----------|


Текст, аккорды и табулатура для песни "Shy Of The Moon", исполняет "Wallflowers".
Используемые в песне аккорды можно найти в разделе Как брать аккорды. Аккорды для шестиструнной гитары. Другие песни можно найти на нашем сайте, воспользовавшись алфавитным указателем вверху страницы.


Слушать онлайн Shy Of The Moon


The WallflowersShy Of The Moon на Яндекс.Музыке


 
Ошибка в тексте? Выделите ошибку и нажмите Ctrl+Enter