Бас в куплете:

4--------------|
5|---2-2-2-2-2---2-2-2-2-2-|
6|-0-----------0-----------|

Бас в припеве:

4|---2-2-2-2-2---4-4-4-4-4-------------------------|
5|-0-----------2-------------2-2-2-2-2---2-2-2-2-2-|
6--------------0-----------0-----------|


 Em
Вся наша жизнь огромный танцпол
 Em
Под музыку высших сфер
Танцоров вперед толкает Господь
Партнеров сует Люцифер
Все выбирают танцы попроще
Ща ваще модно жопой вилять
А такие как мы танцуют танго 
А хрена ли там танцевать

Припев:
   Am                H7           Em
Вот эту руку сюда, эту сюда, ногу вот так
   Am                H7           Em
Вот эту голову так, смотри на меня, двигайся в такт
   Am                H7              Em                 C
Когда я делаю так - ты делай вот так, теперь поворот, хорошо
         Am        H7       Em 
Я знаю, вряд ли мы увидимся еще 

Жаль не хватает моря да пальм
Да белая ночь холодна
Зато глубокими низами и обильными верхами 
Музыка танго полна
Вечернее платье высокий каблук
Пусть бутылка с шампанским пуста
Если ты хочешь жить и сдохнуть красиво
Запомни алгоритм в словах

Припев

Solo:
                                                 (...казачок..:))
1--------------------------------------12-12-12-
2--------------------------------------12-12-12-
3----------------4-4-4-5-5-5-8-9-11-------------
4-----------------------------------9-----------
5----------0-0-0-2-2-2-3-3-3--------------------
6|-0-0-0--0-2-3-7-5-5---------------------------------------

 -4-4-4-----------------------------------------|
 -5-5-5--5-3-1-0------5-------------------------|
 ----------------2-2----4---4-------------------|
 -------------------------5---5-2-5-4-2-1-2-4-2-|
 -----------------------------------------------|
 -----------------------------------------------|

Припев


Текст, аккорды и табулатура для песни "Танго", исполняет "Враги".
Используемые в песне аккорды можно найти в разделе Как брать аккорды. Аккорды для шестиструнной гитары. Другие песни можно найти на нашем сайте, воспользовавшись алфавитным указателем вверху страницы.


Слушать онлайн Овощное танго


Несчастный СлучайОвощное танго на Яндекс.Музыке


 
Ошибка в тексте? Выделите ошибку и нажмите Ctrl+Enter