Собственно, песня простая - на подбор ушло часа полтора. Аккорды совпадают с басом. Бас - U--UU---
Вступление:
B 10-11-13-10------10-11---------------10---------------------
G --------------12-------12------10-12----10--------9-------9-
D ----------------------------12-------------121212---12-10---
Dm        A7           Dm         C         B        C 
О чем поет ночная птица  одна в осенней тишине?
Dm                A7         Dm         C    B         D 
О том, с чем скоро разлучится  и будет видеть лишь во сне
Gm               C              B  A                       Dm  
О том, что завтра в путь неблизкий,  расправив крылья, полетит
C               A                Dm           C         B       C         
О том, что жизнь глупа без риска,  и правда все же победит 

Ночные песни птицы вещей  мне стали пищей для души
Я понял вдруг простую вещь  мне будет трудно с ней проститься
Холодным утром крик последний  лишь бросит в сторону мою
Ночной певец, я твой наследник,  лети, я песню допою

Соло:
  B                                   A  
E ----------------------------------------------------------------
B ----------------------------------------------------------------
G ----------------------------------------------------------------
D ------12------------12-14--12--------------------------------15-
A 13-15----13---13-15-----------15-13-12-13-15-12--12-13-15-12----
E ----------------------------------------------------------------

  Dm                   E            D               
E ---------------------------------------------------------------------------
B ---------------------------------------------------------------------------
G ------12-14----------------12------------------10-------10-12-10-14--12-11-
D 12-15-------15-1212--14-15----14--1112---10-12----12-12--------------------
A ---------------------------------------12----------------------------------
E ---------------------------------------------------------------------------

  B                                                     A
E -------------------13-12----12-13-12----12---------------------------------
B ---13-15-----------------15----------15----15-13--------------------13-----
G 15-------15--14-14-------------------------------15--15-14-12-14-15----14--
D ---------------------------------------------------------------------------
A ---------------------------------------------------------------------------
E ---------------------------------------------------------------------------

                          Dm                         D
E ---------------------------------12-13-13-15-17-15-13--------------13-12---
B ------13-13----------13-15-13-15----------------------151515----15---------
G 14-15-------15-14-15-----------------------------------------14------------
D ---------------------------------------------------------------------------
A ---------------------------------------------------------------------------
E ---------------------------------------------------------------------------

                                                 Холодным утром
E ------------------15-14-17-17-20-17----15-17-18--------------18-17-15------
B 15-13-15-15----15-------------------15--------------------------------18-17
G ------------14-------------------------------------------------------------
D ---------------------------------------------------------------------------
A ---------------------------------------------------------------------------
E ---------------------------------------------------------------------------

Крик последний лишь бросит в сторону мою 
                        drums
Ночной певец, я твой наследник  лети, я песню допою             
E ----------------------------------------------------13--15-13----15-17--
B ----------------------------15-------------15-13--------------15--------
G -------------------------------------------------14---------------------
D ------------------------------------------------------------------------
A ------------------------------------------------------------------------
E ------------------------------------------------------------------------


Текст, аккорды и табулатура для песни "Ночная птица", исполняет "Воскресение".
Используемые в песне аккорды можно найти в разделе Как брать аккорды. Аккорды для шестиструнной гитары. Другие песни можно найти на нашем сайте, воспользовавшись алфавитным указателем вверху страницы.


 
Ошибка в тексте? Выделите ошибку и нажмите Ctrl+Enter