Song: Drunk tank (or Celda borrachera)
Band: Voodoo Glow Skulls
Album:  Firme
tabbed by: Carlos Pino

intro                                           x4
G:---------------------------------------------------------------
D:---------------------------------------------------------------
A:-5--8--7--5-5-5-8-7--------------------------------------
E:---------------------------------------------------------------

   chorus                                       x2
G:---------------------------------------------------------------
D:---------------------------------------------------------------
A:--5>-2>--5>-2>-3-4-5----------------------------------
E:---------------------------------------------------------------

verse: same as intro but x8
chorus
verse

bridge
G:----------------------¦-----------------------------------------
D:----------------------¦-----------------------------------------
A:------4-5-4-5-4-3-¦-------5-4-5-4-5---------------------
E:-3-6-----------------¦-3-6-----------------------------------

G:----------------------¦-----------------------------------------
D:----------------------¦-----------------------------------------
A:------4-5-4-5-4-3-¦-----------------------------------------
E:-3-6-----------------¦--6-1-----------------------------------

repeat the bridge but the second time it end like this
G:---------------------------------------------------------------
D:---------------------------------------------------------------
A:---------3-----------------------------------------------------
E:--6------------------------------------------------------------

don`t know the part when they day ' hey,hey,hey'

verse
chorus

outro
G:--------------------------------------------------------------
D:---------------------------------------------------------------
A:--6-7-8-9-10----------------------------------------------
E:---------------------------------------------------------------






Текст, аккорды и табулатура для песни "Drunk Tank", исполняет "Voodoo Glow Skulls".
Используемые в песне аккорды можно найти в разделе Как брать аккорды. Аккорды для шестиструнной гитары. Другие песни можно найти на нашем сайте, воспользовавшись алфавитным указателем вверху страницы.


 
Ошибка в тексте? Выделите ошибку и нажмите Ctrl+Enter