Am            Am+3         A7            X
6)---------------------------------------------------}
5)---------------------------------------------------}
4)--2-----------2+3----------0-------------2---------}
3)---2--2---2------2-2--2-----2--2----2-----0--0---0-}
2)----1----1--------1--1-------0----0--------0----0--}
1)-------0----0-------0--0--------0-----0-------0----}
Две дороги на моем пути
6)---------------------------------------------------}
5)---------------------------------------------------}
4)--2-----------2+3----------0-------------2---------}
3)---2--2---2------2-2--2-----2--2----2-----0--0---0-}
2)----1----1--------1--1-------0----0--------0----0--}
1)-------0----0-------0--0--------0-----0-------0----}
Все тревоги предстоит пройти
C       G     E           Am    ----------играется тем же перебором
Ветром жизни оплетет меня душа
И клянусь я быть ей верным до конца


6)---------------------------------------------------}
5)---------------------------------------------------}
4)--2-----------2+3----------0-------------2---------}
3)---2--2---2------2-2--2-----2--2----2-----0--0---0-}
2)----1----1--------1--1-------0----0--------0----0--}
1)-------0----0-------0--0--------0-----0-------0----}
Грянул гром вспышки молнии в ночи
6)---------------------------------------------------}
5)---------------------------------------------------}
4)--2-----------2+3----------0-------------2---------}
3)---2--2---2------2-2--2-----2--2----2-----0--0---0-}
2)----1----1--------1--1-------0----0--------0----0--}
1)-------0----0-------0--0--------0-----0-------0----}
По дороге в рай идешь со мною ты
C       G     E           Am    
Как и раньше ты мой ангел не земной
Снова вместе падший ангел мы с тобой

Припев - играется БОЕМ!!!!

Am      F       C    G           Am
Падший ангел - ты разрушил свод небес
Падший ангел - ты теперь несешь свой крест
Райским садом для тебя теперь стал ад
А дорогой . до него горит закат

3
6)---------------------------------------------------}
5)---------------------------------------------------}
4)--2-----------2+3----------0-------------2---------}
3)---2--2---2------2-2--2-----2--2----2-----0--0---0-}
2)----1----1--------1--1-------0----0--------0----0--}
1)-------0----0-------0--0--------0-----0-------0----}
Небо вспыхнет облаками ярких звезд
6)---------------------------------------------------}
5)---------------------------------------------------}
4)--2-----------2+3----------0-------------2---------}
3)---2--2---2------2-2--2-----2--2----2-----0--0---0-}
2)----1----1--------1--1-------0----0--------0----0--}
1)-------0----0-------0--0--------0-----0-------0----}
В адском саде ты витаешь полный грез
Как сквозь дымку запотевшего стекло
Смотришь в землю смотришь прямо на меня

Припев


Текст, аккорды и табулатура для песни "Падший Ангел", исполняет "Воланд".
Используемые в песне аккорды можно найти в разделе Как брать аккорды. Аккорды для шестиструнной гитары. Другие песни можно найти на нашем сайте, воспользовавшись алфавитным указателем вверху страницы.


 
Ошибка в тексте? Выделите ошибку и нажмите Ctrl+Enter