Проигрыш после первого припева:

e--------------------------
h------5----------5-1------
g--2-5---2-5--2-5-----4-2--
d--------------------------
a--------------------------
e--------------------------

e--------------------------
h------8----------8-6-5-3--
g--2-5---2-5--2-5----------
d--------------------------
a--------------------------
e--------------------------

e--------------------------
h------5----------5-1------
g--2-5---2-5--2-5-----4-2--
d--------------------------
a--------------------------
e--------------------------

e--------------------------
h------6-----------6-5-3-1-
g--2-5---2-5--2-5----------
d--------------------------
a--------------------------
e--------------------------


Am
Видеть тебя всегда
F
Хочется мне сейчас,
G
Мысли твои читать 
C                  E7
В каждом движении глаз. 
Am
А еще иногда
F
Слышать дыхание так, 
Dm
Чтобы был каждый вздох
E7
В такт. 

Припев:
     Am        Dm
     Я у твоих ног, 
        E7          Am  Am/G
     Спасибо не говори.
       F                  Dm
     В этом тебе помог Бог,
      E7                 Am
     Его и благодари. 

Проигрыш:


Только своей рукой 
Вылепила тебя, 
Как ветер - бархан песка, 
С ним я сравню себя. 
Знаю, что получу 
Все, что не захочу,
Лишь бы мне все успеть 
Спеть.


Текст, аккорды и табулатура для песни "Я у твоих ног", исполняет "Власова Наталья".
Используемые в песне аккорды можно найти в разделе Как брать аккорды. Аккорды для шестиструнной гитары. Другие песни можно найти на нашем сайте, воспользовавшись алфавитным указателем вверху страницы.


 
Ошибка в тексте? Выделите ошибку и нажмите Ctrl+Enter