Пол дня, пол дня, как пол-века назад
Я был, я плыл вниз по реке.
Я знал, я верил в победу добра.
Я шел, я вел свой народ.

TAB 1:
E|7--------|--7----5----7----5-------------------|
B||--5----------------------------|--8----8----8----8--7-8-7-|
G------------------------|
D------------------------|
A------------------------|
E------------------------|
                                      
--------------------------||
--5-----------------------||
--------------------------||
--------------------------||
--------------------------||
--------------------------||

Но враги вышли из лесов
Грохот пушек, треск мостов
И нет кораблей, и нет моряков
Лишь плач трусов да смех дураков.

TAB 1

Все стихло, замерло нет победы, нет живых
И нет кораблей и нет моряков
Пол дня, пол дня, как пол-века назад
Я был, был народ, а теперь тишина.

TAB 2:
E|-10--------|--12----15----14----12--12--|
B||--12-----------------------------------|
G-----------------|
D-----------------|
A-----------------|
E-----------------|

--10----------12----10---------------||
--------12--------------12--|--12----------------||
-------------------------------------||
-------------------------------------||
-------------------------------------||
-------------------------------------||


Текст, аккорды и табулатура для песни "Пол дня", исполняет "Вивисекция".
Используемые в песне аккорды можно найти в разделе Как брать аккорды. Аккорды для шестиструнной гитары. Другие песни можно найти на нашем сайте, воспользовавшись алфавитным указателем вверху страницы.


 
Ошибка в тексте? Выделите ошибку и нажмите Ctrl+Enter