Am         F
Все перемешалось 
G              Em
И любовь и жалость,
Нищий в серебре,
Ангел при дворе

	Am   F   G    Em   Am    F    G     Em
	Ангел с усмешкою дьявола рубит с плеча,
	Инквизиция объявила смерть святым палачам.
	Am    F            G             Em
	Вместо рая здесь дьявольское пекло
	Вместо Бога здесь Сатана.
	И как нам переплыть огненную реку
	Ты не узнаешь никогда. О да...


E-----------------|
B-----------------|
G-----------------|
D-----------------|
A||-------3--5/-7--7--5--3--|-------0--2/-3--3--2--0--|
E||--5----------------------|--1----------------------|


---------------------------------------||
---------------------------------------||
---------------------------------------||
---------------------------------------||
-------2--3/-5--5--3--2--|--7----5--3/-2--2--3--2--||
--3------------------------------------||


Все перемешалось
Веры не осталось,
Где правда, где ложь
Ты уже не разберешь.


E--------------------------|
B||--12----10-------------|--12----10----13--------|--13----12-------------|
G|---9------------------------9--------|
D--------------------------|
A--------------------------|
E--------------------------|
                                                                               
--------------------13----|--12----------------|--12----13----15--13--12--13--|
--10----12----13--------------------------------------|
------------------------------------------------------|
------------------------------------------------------|
------------------------------------------------------|
------------------------------------------------------|
                                                   
--10-------------------10------------||
--------------------|--12----12----------12--12--||
-------------------------------------||
-------------------------------------||
-------------------------------------||
-------------------------------------||


Текст, аккорды и табулатура для песни "Инквизиция", исполняет "Вивисекция".
Используемые в песне аккорды можно найти в разделе Как брать аккорды. Аккорды для шестиструнной гитары. Другие песни можно найти на нашем сайте, воспользовавшись алфавитным указателем вверху страницы.


 
Ошибка в тексте? Выделите ошибку и нажмите Ctrl+Enter