#----------------------------------PLEASE NOTE--------------------------------#
#This file is the author's own work and represents their interpretation of the#
#song. You may only use this file for private study, scholarship, or research.#
#-----------------------------------------------------------------------------#

Date: Sat, 16 May 1998 00:35:28 +0300 (EET DST)
From: - 
Subject: v/vivaldi_antonio/winter.tab

	Antonio Vivaldi - Four seasons: Winter
       =================


 
 tab - rame cain


 I havent put there any of those finger vibratos and slight bends, but
 its no big deal for you to find em out. You'll get the timing from the
 record better too. Anyway, hope you'll enjoy playing it.

 Suggestions, corrections or anykind of feedbaCk to [email protected]





[email protected]--16--15---
--16--------------18--16---18--------------------18--16--15-----------------
-------------------------------15----15-------------------------------------
----------------------------------------------------------------------------
----------------------------------------------------------------------------
----------------------------------------------------------------------------

---15------15--16--18---20--22----------15--16--18--20--------------15----
-------18-----------------------16--18------------------15--16--18--------
--------------------------------------------------------------------------
--------------------------------------------------------------------------
--------------------------------------------------------------------------
--------------------------------------------------------------------------

--16--18---------------13--15-------------------------13--------------15----
----------13---15--16----------16--15---------------------------------------
------------------------------------------15--14--15------15--14--15--------
----------------------------------------------------------------------------
----------------------------------------------------------------------------
----------------------------------------------------------------------------

--------------17---------------18---------18~--18--17----------------------
-------------------18--16--18--------------------------20--18--16----------
--15--14--15-----------------------15------------------------------19--17--
---------------------------------------------------------------------------
---------------------------------------------------------------------------
---------------------------------------------------------------------------

-----------------------------------------------------------------------------
------15--13h14p13h14p13h14p13h14p13h14p13h14p13------------------18--16--15-
--15----------------------------------------------15--15------15-------------
-----------------------------------------------------------------------------
-----------------------------------------------------------------------------
-----------------------------------------------------------------------------

----------------------------------------------------------------16--15------
------------------------------------------------------------------------18--
--17--15---17------------20--19--17----------20---20--19----15--------------
----------------15---15--------------20--19---------------------------------
----------------------------------------------------------------------------
----------------------------------------------------------------------------

----------16---16--15------------------15--16---------------15--16--18-----
--16--15-------------------15--16--18-----------15--16--18-----------------
-----------------------17--------------------------------------------------
---------------------------------------------------------------------------
---------------------------------------------------------------------------
---------------------------------------------------------------------------

								    2 times
----------15--16--18--20-----;-----------------------15--16--18--15---------;
--16--18------------------15-;-15--16--18--16-------------------------18----;
-----------------------------;----------------17--15---------------------15-;
-----------------------------;----------------------------------------------;
-----------------------------;----------------------------------------------;
-----------------------------;----------------------------------------------;

-------18--15------------------------------------------------------------
---18----------18--16--15h16p15h16p15h16p15h16---16---16-----------------
-------------------------------------------------------------------------
-------------------------------------------------------------------------
-------------------------------------------------------------------------
-------------------------------------------------------------------------

						- Thank you

  							


Текст, аккорды и табулатура для песни "Winter", исполняет "Vivaldi Antonio".
Используемые в песне аккорды можно найти в разделе Как брать аккорды. Аккорды для шестиструнной гитары. Другие песни можно найти на нашем сайте, воспользовавшись алфавитным указателем вверху страницы.


Слушать онлайн Winter


Антонио ВивальдиWinter на Яндекс.Музыке


 
Ошибка в тексте? Выделите ошибку и нажмите Ctrl+Enter