Мелодия
                                                                            
E||------3--3--3----1--4---4----4--3---------3--1--|
B-|------4--4-------------|----4--4--4--4----------|
                                                                           

E|1h3p1----------|-------3--3--3--1----4--|---------4----4--4----|
B||------3--3----------3--4---------------|------4---------------|
G----|----5------------------------------|


                                                                          
E||--3-------------------1---4----3-----|------3--3--3----1--4--|
B||-----4--4--4--4----4-----|----4--3------------1--------------|

-------------------------------------------|
--------------------------------|--------4--4--3----4--|
-------------------------------------------|
-------------------------------------------|
-------------------------------------------|
-------------------------------------------|


                                                                     
----------------1---------------------------|
------3----4-------4--|--------4--4-------4--|----4----3---------4--|
-------------------------0----------0-------|
--------------------------------------------|
--------------------------------------------|
--------------------------------------------|


                                                                     
-------------------------1---------------3--|
--------4--4----3--4--|--------3--4-------4--|--------4--4----4-----|
--------------------------------------------|
--------------------------------------------|
--------------------------------------------|
--------------------------------------------|


                                                                     
----3---------------------------------1-----|
---------4----3----1--|--------4--4--3----4--|------3----4-------4--|
--------------------------------------------|
--------------------------------------------|
--------------------------------------------|
--------------------------------------------|


                                                                     
--------------------------------------------|
--------4--3-------4--|----4----3---------4--|--------4--4----3--4--|
--------------0----------0------------------|
--------------------------------------------|
--------------------------------------------|
--------------------------------------------|


                                                                     
--------------1---------------3--|----3-----------------|
--------3--4-------4--|--------4--4----4-----|---------4----3----1--|
--------------------------------------------|
--------------------------------------------|
--------------------------------------------|
--------------------------------------------|



Партия на припев

                                                                      
E||--3------3----3----3-------------|----6----6----6----6--|
B||--4------4----4----4--|----4----4----4----4--|----8----8----8----8--|
G||--5------5----5----5--|----5----5----5----5--|----8----8----8----8--|
D|----6----6----6----6-------------|
A----------------------|
E----------------------|


                                                                         
------------------------------------------------|
----6----6----6----6--|----8-----8-----8-----8---|----4----4----4----4--|
----7----7----7----7--|----8-----8-----8-----8---|----5----5----5----5--|
----8----8----8----8--|----10----10----10----10--|----6----6----6----6--|
------------------------------------------------|
------------------------------------------------|


                                                                     
---------------------------------|----3----3----3----3--|
----------------------|----0----0----0----0--|----4----4----4----4--|
----0----0----0----0--|----7----7----7----7--|----5----5----5----5--|
----8----8----8----8--|----5----5----5----5-------------|
----6----6----6----6------------------------|
--------------------------------------------|


      Cm	    G#                Eb
	Попрошу тебя, чтобы солнце грело.
	            A#             Cm  
        Попрошу тебя, чтобы море пело.
	Попрошу тебя, о чем не просила.
	Попрошу любить меня сильно.
	
	Попрошу тебя, чтобы солнце грело.
        Попрошу тебя, чтобы море пело.
 	Попрошу тебя, о чем не просила.
	Попрошу любить меня сильно. 
	
Cm                          G#
  Земля по кругу, солнца нет.
         G             Cm
  Меняется два раза цвет.
  Лишь мы с тобой сейчас одни
  И отражение от луны.
  
  Над нами шумные мосты.
  С большими буквами щиты.
  В твоей руке моя рука.
  Как будто было так всегда.

Припев.
  
  Все не могло так долго быть.
  Смеялся день, смеялась жизнь.
  Сняла последний свой запрет.
  Раскрылись тайны и секрет.

  Потерян был твой интерес.
  И словно день ты в ночь исчез.
  Но капала дождем слеза.
  Светились от любви глаза.

Припев.


Текст, аккорды и табулатура для песни "Попрошу тебя", исполняет "Вирус".
Используемые в песне аккорды можно найти в разделе Как брать аккорды. Аккорды для шестиструнной гитары. Другие песни можно найти на нашем сайте, воспользовавшись алфавитным указателем вверху страницы.


 
Ошибка в тексте? Выделите ошибку и нажмите Ctrl+Enter