Violent Femmes - Kiss Off
Submitted By: rap_boy
EMail: [email protected]


Chords used:

Em              0 2 2 x x x
C               x 3 2 0 1 0
D5/F#           2 x 0 2 3 x

v=strum down
^=strum up

   Em
e|-0---------|
B|--0--------|
G|---0-------|
D|----2------|
A|-----2-----|
E|------0----|

         Em
e|---------------------------------------------|
B|---------------------------------------------|
G|---------------------------------------------|
D|-------2-------2-------2-------2-------------|
A|-------2-------2-------2-------2-------------|
E|-0-0-0-0-0-0-0-0-0-0-0-0-0-0-0-0-0-0-0-------|
   v ^ v ^ v ^ v ^ v ^ v ^ v ^ v ^

Em 
I need someone, a person to talk to
Someone who'd care to love
            C
Could it be you
            Em
Could it be you
Situation gets rough
Then I start to panic
It's not enough
It's just a habit
        C
Hey kid you're sick
                Em
Darling this is itC                D5/F#
You can all just kiss off into the air
Behind my back I can see them stare
They'll hurt me bad but I won't mind
They'll hurt me bad they do it all the time
Yeah yeah, they do it all the time

Em
I hope you know that this will go down on your permanent record
                          C
Oh yeah well don't get so distressed
                                 Em
Did I happen to mention that I'm impressed

 (Brian and Gordon do their own thing, sorry i can't
tab this part out)

Bass Arranged for Guitar

e|--------------------------------|
B|--------------------------------|
A|--------------------------------|
D|--------------------------------|
A|--------------------------------|
E|--0-x-0-0-x-0-x-0-0-(12/1)------|

x= slap mute (for this part Brian plays with his left hand over the 
neck of the guitar)

I take one one one 'cause you left me
And two two two for my family
And 3 3 3 for my heartache
And 4 4 4 for my headaches
  Em
And 5 5 5 for my lonely
And 6 6 6 for my sorrow
And 7 7 7 for no tomorrow
And 8 8 8 I forget what 8 was for
And 9 9 9 for a lost god
And 10 10 10 for everything everything everything everything

C                D5/F#
You can all just kiss off into the air
Behind my back I can see them stare
They'll hurt me bad but I won't mind
They'll hurt me bad they do it all the time
Yeah yeah, they do it all the time (repeat)

End with Em (low E string ringing)


Текст, аккорды и табулатура для песни "Kiss Off", исполняет "Violent Femmes".
Используемые в песне аккорды можно найти в разделе Как брать аккорды. Аккорды для шестиструнной гитары. Другие песни можно найти на нашем сайте, воспользовавшись алфавитным указателем вверху страницы.


 
Ошибка в тексте? Выделите ошибку и нажмите Ctrl+Enter