Most of this song is mostly accurate especially the beginning.
This is my first tab, e-mail me for corrections.

Intro 
G-0-4-0-5-4-0-4-0-5-4-0-4-0-5-4-0- (Play twice)
D---------------------------------
A---------------------------------
E---------------------------------

G------------------------- (Play 2x until vocals,then another 2x till chorus)
D----------------------------------------------
A----2-----3--2-----2-----3--2-----2-----3--2--
E-3-----3--------3-----3--------3-----3--------3

Chorus
G--------------------------------------------------------------------------
D-----0h2-------0h2-------------------------------0h2-------0h2-----------0
A----------------------3-2-0----3-3-2-0---------------------------3-2-3-4
E-0----------0---------------3----------3-----0---------0------------------

G----------------------
D-0-3h4---3h4-0--------
A-------5-------3-2-0--
E---------------------3-

Verse
G------------------------------------------------ (Play twice)
D----------------------------------------------
A----2-----3--2-----2-----3--2-----2-----3--2--
E-3-----3--------3-----3--------3-----3--------3

Chorus
G--------------------------------------------------------------------------
D-----0h2-------0h2-------------------------------0h2-------0h2-----------0
A----------------------3-2-0----3-3-2-0---------------------------3-2-3-4
E-0----------0---------------3----------3-----0---------0------------------

G----------------------
D-0-3h4---3h4-0--------
A-------5-------3-2-0--
E---------------------3-

Verse
G------------------------------------------------ (Play twice)
D-----------------------------------------------
A----2-----3--2-----2-----3--2-----2-----3--2---
E-3-----3--------3-----3--------3-----3--------3

I am not sure about the solo after this but I think its something like
G------------
D-5h3---3/2-0
A-----5------
E------------

Verse

G------------------------------------------------ (Play twice)
D-----------------------------------------------
A----2-----3--2-----2-----3--2-----2-----3--2---
E-3-----3--------3-----3--------3-----3--------3

(whispered vocals, no bass)

Chorus
G--------------------------------------------------------------------------
D-----0h2-------0h2-------------------------------0h2-------0h2-----------0
A----------------------3-2-0----3-3-2-0---------------------------3-2-3-4
E-0----------0---------------3----------3-----0---------0------------------

G----------------------
D-0-3h4---3h4-0--------
A-------5-------3-2-0--
E---------------------3-

Verse
G------------------------------------------------ (Play twice)
D-----------------------------------------------
A----2-----3--2-----2-----3--2-----2-----3--2---
E-3-----3--------3-----3--------3-----3--------3


Thats it!


Текст, аккорды и табулатура для песни "Blister In The Sun", исполняет "Violent Femmes".
Используемые в песне аккорды можно найти в разделе Как брать аккорды. Аккорды для шестиструнной гитары. Другие песни можно найти на нашем сайте, воспользовавшись алфавитным указателем вверху страницы.


 
Ошибка в тексте? Выделите ошибку и нажмите Ctrl+Enter