Band/Artist- The Vines
Song- Ride
Tabber- cKy Freak ([email protected])

Notation Guide
pm... = palm mute
^ = bend up half step and release
// = wide vabrato

Intro 
E------------------------------------E
B-6-6------6-6------6-6---9-11-11----B
G-6-6------6-6------6-6---9-11-11----G
D-6-6------6-6------6-6---9-11-11----D
A-4-4------4-4------4-4---7--9--9----A
E-----4-4------4-4------0------------E

Verses (0:15,1:01)
E------------------------------------E
B-6-6------6-6------6-6---9-11-11----B
G-6-6------6-6------6-6---9-11-11----G
D-6-6------6-6------6-6---9-11-11----D
A-4-4------4-4------4-4---7--9--9----A
E-----4-4------4-4------0------------E
1.That's the start the middle and the end
Arent you glad the universe pretends 
If i don't get this message home
Once again I'm gonna hate alone

2.Through a lot ignored the right to be
lie me down becuase we like to see the
colors through your loaded mind
Fuck the world and liberate our time


Chorus (0:31,1:16)
E-----------------E
B-----------------B
G-6-6--2-2-2--0---G
D-6-6--2-2-2--0---D
A-4-4--0-0-0--0---A
E-----------------E
Ride With me, Ride with me

Bridge (1:32) Guitar 1
E-5-5-5-5-|--3-3-3-3-|--2-2-2-2--E
B-5-5-5-5-|--3-3-3-3-|--2-2-2-2--B
G-6-6-6-6-|--4-4-4-4-|--3-3-3-3--G
D-7-7-7-7-|--5-5-5-5-|--4-4-4-4--D
A-7-7-7-7-|--5-5-5-5-|--4-4-4-4--A
E-5-5-5-5-|--3-3-3-3-|--2-2-2-2--E X2
I'm not waitin' alone

Bridge Guitar 2 (plays under barre chords of guitar one)
E---------|----------|-----------E
B---------|----------|-----------B
G--6-7-6--|--4-5-4---|--3-4-3----G
D-7-----7-|-5-----5--|-4-----4---D
A---------|----------|-----------A
E---------|----------|-----------E X2

Part before guitar solo
E----E
B----B
G----G
D-4--D
A-4--A
E-2--E X16
pm.....

Guitar Solo
E-----------------------------------------------------------------------E
B-6^-6^-6^-6^--------------------0-0-----------------------------0-0-0--B
G-6^-6^-6^-6^-9^-9^-9^-9-9-9//-0-0--12^-12^-12^-12^-12^-12-12^-0-0-0--G
D--------------------------------0-0--0---0---0---0--------------0-0-0--D
A----------------------------------------------------------------0-0-0--A
E-----------------------------------------------------------------------E

Breakdown (2:02)
E------------------------------------E
B-6-6------6-6------6-6---9-11-11----B
G-6-6------6-6------6-6---9-11-11----G
D-6-6------6-6------6-6---9-11-11----D
A-4-4------4-4------4-4---7--9--9----A
E-----4-4------4-4------0------------E

Outro (chorus)
E-----------------E
B-----------------B
G-6-6--2-2-2--0---G
D-6-6--2-2-2--0---D
A-4-4--0-0-0--0---A
E-----------------E
Ride With me, Ride with me

enjoy


Текст, аккорды и табулатура для песни "Ride", исполняет "Vines".
Используемые в песне аккорды можно найти в разделе Как брать аккорды. Аккорды для шестиструнной гитары. Другие песни можно найти на нашем сайте, воспользовавшись алфавитным указателем вверху страницы.


 
Ошибка в тексте? Выделите ошибку и нажмите Ctrl+Enter