-------------------------------------------------------------------------------
			     Ride - The Vines
-------------------------------------------------------------------------------
Tabbed by:Dorian
Email:[email protected]

Tuning:Standard

The Vines
Winning Days
Ride


 Main/Verse riff- use thumb and 1st finger to stop the E strings
E--------x-x-------x-x-------x-0--2-2-0------------------------
B---2-2--x-x--2-2--x-x--2-2--x-0--2-2-0------------------------
G---4-4--x-x--4-4--x-x--4-4--x-1--3-3-1------------------------
D---3-3--x-x--3-3--x-x--3-3--x-2--4-4-2------------------------
A---4-4--x-x--4-4--x-x--4-4--x-2--4-4-2------------------------
E--------x-x-------x-x-------x-0--2-2-0------------------------

   Chorus
E--------------------------------------------------------------
B--------------------------------------------------------------
G---666-------666-------666------------------------------------
D---666--777--666--777--666--777---2-2--4-4--2-2---------------
A---444--777--444--777--444--777---2-2--4-4--2-2---------------
E--------555-------555-------555---0-0--2-2--0-0---------------

  Fill after fisrt chorus.
E--------------------------------------------------------------
B--------------------------------------------------------------
G--6-6-----6-6-----6-6-----------------------------------------
D--6-6-5-5-6-6-5-5-6-6-5--2-4-4-2------------------------------
A--4-4-----4-4-----4-4----2-4-4-2------------------------------
E-------------------------0-2-2-0------------------------------

   Bridge
E---5-5-----------3-3------------2-2-----------2-2-------------
B---5-5-----------3-3------------2-2-----------2-2-------------
G---6-6--6-7-6----4-4--4-5-4-----3-3--3-4-3----3-3--3-4-3------
D---7-7--------7--5-5--------5---4-4--------4--4-4--------4----
A---7-7-----------5-5------------4-4-----------4-4-------------
E---5-5-----------3-3------------2-2-----------2-2-------------
						P.M.
E---5-5-----------3-3------------2-2---------------------------
B---5-5-----------3-3------------2-2---------------------------
G---6-6--6-7-6----4-4--4-5-4-----3-3--3-4-3--------------------
D---7-7--------7--5-5--------5---4-4--------4--4444444---------
A---7-7-----------5-5------------4-4-----------4444444---------
E---5-5-----------3-3------------2-2-----------2222222---------

Solo- Do a bend into a pull-off, each position 8 times then scratch.
E-----------------------------------xxxxxxxxx--------------------
B-----------------------------------xxxxxxxxx--------------------
G----7b-p6-----10b-p9-----13b-p12---xxxxxxxxx--------------------
D-----------------------------------xxxxxxxxx--------------------
A----------------------------------------------------------------
E----------------------------------------------------------------

  End
E-------------------------------------
B--2-2--------------------------------
G--4-4--------------------------------
D--3-3--------------------------------
A--4-4--------------------------------
E-------------------------------------   Tabs by-Dorian


Текст, аккорды и табулатура для песни "Ride", исполняет "Vines".
Используемые в песне аккорды можно найти в разделе Как брать аккорды. Аккорды для шестиструнной гитары. Другие песни можно найти на нашем сайте, воспользовавшись алфавитным указателем вверху страницы.


 
Ошибка в тексте? Выделите ошибку и нажмите Ctrl+Enter