Outtathaway 

The 2nd guitar part during the chorus 
is the exact same as the Outro... 
the solo bend on 7 may be confusing but l
isten to the song to get it
The rhythm & pattern in this is tricky 
but listen to the song to get it down. 
Once you learn it it'll b much easier

U=up stroke
D=down stroke
/ = Slide Up
b = Ѕ bend
B = Full bend 
p = Pull off
h = Hammer on

Verse and intro
Played x6
|---------------------------------------------| 
|--2-2-x-x--0---0--2-----2---x-x-5-5-5--------|
|--2-2-x-x--0---0--2-----2---x-x-5-5-5---0----|
|--2-2-x-x--0---0--2-----2---x-x-5-5-5---0----|
|-----------x---0----------------3-3-3---0----|
|-----------3----------------------------0----|
                   U     D       D D D
Played x1
|------------1---------------------------------------|
|-0-0--------1-----0------0-------------3-3-3--0-----|
|-0-0--x-----2--0--0------0-----x--x----3-3-3--0-----|
|-0-0--x-----3--0--0------0-----x--x----3-3-3--0-----|
|-x-x--x--0--3--0--x------x-----x--x----1-1-1--0-----|
|-3-3--x--0--1--0--3------3-----x--x-----------0-----|
                   U      D		    D D D  U
X1
|---------------------------------------------| 
|--2-2-x-x--0---0--2-----2---x-x-5-5-5--------|
|--2-2-x-x--0---0--2-----2---x-x-5-5-5---0----|
|--2-2-x-x--0---0--2-----2---x-x-5-5-5---0----|
|-----------x---0----------------3-3-3---0----|
|-----------3----------------------------0----|
                   U     D       D D D
Chorus
|---------------------------------------------|
|-2-2-2-2-2-2-0/5-----5-------0----0-0--------|
|-2-2-2-2-2-2-0/5-----5---0---0----0-0-0------|
|-2-2-2-2-2-2-0/5-----5---0---0----0-0-0------|
|-0-0-0-0-0-0-0/3-----3---0---x----x-x-0------|
|-------------------------0---3----3-3-0------|

|---------------------------------------------|
|-4----4-4-4-4-4/7----7-7---5---5-5-----------|
|-4----4-4-4-4-4/7----7-7---5---5-5-x---------|
|-4----4-4-4-4-4/7----7-7---5---5-5-x---------|
|-2----2-2-2-2-2/5----5-5---3---3-3-x---------|
|---------------------------------------------| 




Played x2
|---------------------------------------------| 
|--2-2-x-x--0---0--2-----2---x-x-5-5-5--------|
|--2-2-x-x--0---0--2-----2---x-x-5-5-5---0----|
|--2-2-x-x--0---0--2-----2---x-x-5-5-5---0----|
|-----------x---0----------------3-3-3---0----|
|-----------3----------------------------0----|
                   U     D       D D D
Played x1
|------------1-----------------------------------------|
|-0-0--------1-----0------0-------------3-3-3--0-------|
|-0-0--x-----2--0--0------0-----x--x----3-3-3--0-------|
|-0-0--x-----3--0--0------0-----x--x----3-3-3--0-------|
|-x-x--x--0--3--0--x------x-----x--x----1-1-1--0-------|
|-3-3--x--0--1--0--3------3-----x--x-----------0-------|
                   U      D		    D D D  U

|---------------------------------------------| 
|--2-2-x-x--0---0--2-----2---x-x-5-5-5--------|
|--2-2-x-x--0---0--2-----2---x-x-5-5-5---0----|
|--2-2-x-x--0---0--2-----2---x-x-5-5-5---0----|
|-----------x---0----------------3-3-3---0----|
|-----------3----------------------------0----|
                   U     D       D D D

Chorus
|---------------------------------------------|
|-2-2-2-2-2-2-0/5-----5-------0----0-0--------|
|-2-2-2-2-2-2-0/5-----5---0---0----0-0-0------|
|-2-2-2-2-2-2-0/5-----5---0---0----0-0-0------|
|-0-0-0-0-0-0-0/3-----3---0---x----x-x-0------|
|-------------------------0---3----3-3-0------|

|---------------------------------------------|
|-4----4-4-4-4-4/7----7-7---5---5-5-----------|
|-4----4-4-4-4-4/7----7-7---5---5-5-x---------|
|-4----4-4-4-4-4/7----7-7---5---5-5-x---------|
|-2----2-2-2-2-2/5----5-5---3---3-3-x---------|
|---------------------------------------------| 

Solo
|---------------------------------------|
|---------------------------------------|
|---------------------------------------|
|------/7--5----------------------------|
|-0-----------7—b5--3-3p0—3h5-5p0-------|
|---------------------------------------|

|--------------------------------------|
|--------------------------------------|
|--------------------------------------|
|------/7--5---------------------------|
|-0-----------7—b5--3-3p0—3h5-5p0------|
|--------------------------------------|


|--------------------------------------|
|--------------------------------------|
|--------------------------------------|
|------/7--5---------------------------|
|-------------7—b5--3-3p0—3h5-5p0------|
|--3-----------------------------------|

|--------------------------------------|
|--------------------------------------|
|--------------------------------------|
|------/7--5---------------------------|
|--0-----------7—b5--3-3p0—3h5-5p0-----|
|--------------------------------------|

|------------------------------------------------|
|------------------------------------------------|
|------7--5-----------------5--------------------|
|------7-----7--5------5-7-----7—5p0-------------|
|--0---------------5h7----------------5p0--------|
|------------------------------------------------|
           
|------------------------------------------------|
|------------------------------------------------|
|------7---5--7--5—B7-—B7-B7-B7----7---5---------|
|------7----------------------------------7p5----|
|--0-------------------------------------------7-|
|------------------------------------------------|
	             |~~~~~~~~~~~|	    
                    Hold Bend 

|------------------------------------|
|------------------------------------|
|--9-8-7-9-8-7-9-8-7-9-8-7-9-8-7-5---|
|------------------------------------|
|------------------------------------|
|------------------------------------|

|---------------------------------------|
|---------------------------------------|
|---------------------------------------|
|--7----7--5----------------------------|
|-------------7—b5--3-3p0—3h5-5p0---0---|
|---------------------------------------|

Interlude
|---------------------------------------|
|---------------------------------------|
|---------------------------------------|
|---------------------------------------|
|--0------------------------------------|
|---------------------------------------|






|----------------------------------------|
|----------2-----------------------------|
|--x-x-x-x-2-----------------------------|
|--x-x-x-x-2-----------------------------|
|--x-x-x-x-0-----------------------------|
|----------------------------------------|

Guitar II (Interlude)
(Starts with A chord of first guitar during interlude)
|------------------------------------------------|
|------------------------------------------------|
|------------------------------------------------|
|----------0--------------4/b7--------------9/21-|
|----------0-------------------------------------|
|------------------------------------------------|

Breakdown
P.M==============================================================|
|-----------------------------------------------------------------|
|-----------------------------------------------------------------|
|-----------------------------------------------------------------|
|--2-2-2-2-2-2-2-5-5-5-5-----------4-4-4-4-4-4-4-7-7-7-7-5-5-5-5--|
|--0-0-0-0-0-0-0-3-3-3-3-5-5-5-5---2-2-2-2-2-2-2-5-5-5-5-3-3-3-3--|
|------------------------3-3-3-3-0------------------------------0-|

P.M=============================================|
|-----------------------------------------------------------------|
|------------------------------------------------- -------5-5-5---|
|-------------------------------------------------7-7-7-5-5-5-5-0-|
|--2-2-2-2-2-2-2-5-5-5-5-----------4-4-4-4-4-4-4--7-7-7-5-5-5-5-0-|
|--0-0-0-0-0-0-0-3-3-3-3-5-5-5-5---2-2-2-2-2-2-2--5-5-5-3-3-3-3-0-|
|------------------------3-3-3-3-0---------------0----------------|

Outro
X4
|--------------------------------------------------------------------|
|-2----2----2-2-----5---5----0----0-0--0--4----4---4-4-----/7----7-7-|
|-2----2----2-2-----5---5----0----0-0--0--4----4---4-4--0--/7----7-7-|
|-2----2----2-2-----5---5----0----0-0--0--4----4---4-4--0--/7----7-7-|
|-0----0----0-0-----3---3----x----x-x-----2----2---2-2--0--/5----5-5-|
|----------------0---------0—3----3-3--------------------------------|
			  U   U  

|---------------------------------|
|--5----5-5-----------------------|
|--5----5-5-x---------------------|
|--5----5-5-x---------------------|
|--3----3-3-x---------------------|
|---------------------------------|

Exit
|---------------------------------|
|-2-----2-----x---0------2--------|
|-2-----2--x--x---0--x---2--------|
|-2-----2--x--x---0--x---2--------|
|-0-----0--x--x---x--x---0--------|
|-----------------3---------------|


Текст, аккорды и табулатура для песни "Outtathaway", исполняет "Vines".
Используемые в песне аккорды можно найти в разделе Как брать аккорды. Аккорды для шестиструнной гитары. Другие песни можно найти на нашем сайте, воспользовавшись алфавитным указателем вверху страницы.


 
Ошибка в тексте? Выделите ошибку и нажмите Ctrl+Enter