The Vines - Outtathaway
Highly Evolved 2002

(note: i will not put up the structure so figure when to play what)
by: sparta

tuning: half step down - Eb, Ab, Db, Gb, Bb, eb

intro (for the feedback, turn your distortion/overdrive all the way up and
let go of the strings so that nothing touches it. it may not sound right, 
but it's close.)

e|------------------------------------------------|
B|------------------------------------------------|
G|------------------------------------------------|
D|-8-8-66-8-88-11-11-11-11------------------------|
A|-8-8-66-8-88-11-11-11-11------------------------|
E|-6-6-44-6-66-9--9--9--9-------------------------| x4

verse (part one is played once after part two)
e|------------------------------------------------|
B|------------------------------------------------|
G|------------------------------------------------|
D|-8-8-66-8-88-11-11-11-11------------------------|
A|-8-8-66-8-88-11-11-11-11------------------------|
E|-6-6-44-6-66-9--9--9--9-------------------------| x2

e|------------------------------------------------|
B|------------------------------------------------|
G|------------------------------------------------|
D|-6-6-44-6-66-9-9-9-9----------------------------|
A|-6-6-44-6-66-9-9-9-9----------------------------|
E|-4-4-22-4-44-7-7-7-7----------------------------|

chorus
e|-------------------------------------------------------------------------------------------|
B|-------------------------------------------------------------------------------------------|
G|-------------------------------------------------------------------------------------------|
D|-8-8-8-8-8-8-8-8-11-11-11-6-6-6-6-6-10-10-10-10-10-10-10-10-13-13-13-11-11-11-11-11--------|
A|-8-8-8-8-8-8-8-8-11-11-11-6-6-6-6-6-10-10-10-10-10-10-10-10-13-13-13-11-11-11-11-11--------|
E|-6-6-6-6-6-6-6-6-9--9--9--4-4-4-4-4-8--8--8--8--8--8--8--8--11-11-11-9--9--9--9--9---------|

solo
e|---------------------------------------------------------------------------|
B|---------------------------------------------------------------------------|
G|---------------------------------------------------------------------------|
D|---8-6---------------------8-6--------------------8-6----------------------|
A|-------8-6b-4---4-6-8----------8-6b-4---4-6-8---------8-6b-4---4-6-8-------|
E|-6------------6-------6-6-------------6-------6-4------------6-------6-6---|

e|---------------------------------------------------------------------------|
B|---------------------------------------------------------------------------|
G|------------------8-6-------------6---------8-6-8-6-8s*-*-*-8-6------------|
D|---8-6----------------8-6-----6-8---8-6-------------------------8-6--------|
A|-------8-6b-4-------------6h8-----------8-6-------------------------8------|
E|-6------------6-6----------------------------------------------------------|
				*=10
e|---------------------------------------------------------------------------|
B|-6-5-4-6-5-4-6-5-4-6-5-4-6-5-4---------------------------------------------|
G|-------------------------------6-------------------------------------------|
D|---------------------------------8-8-6-------------------------------------|
A|---------------------------------------8-6b-4---4-6-8----------------------|
E|----------------------------------------------6-------6-6------------------|

For the bridge, just pick scrape a little and then for the part after, palm mute
the chorus, and then find out the rest to play when. Good luck!


Текст, аккорды и табулатура для песни "Outtathaway", исполняет "Vines".
Используемые в песне аккорды можно найти в разделе Как брать аккорды. Аккорды для шестиструнной гитары. Другие песни можно найти на нашем сайте, воспользовавшись алфавитным указателем вверху страницы.


 
Ошибка в тексте? Выделите ошибку и нажмите Ctrl+Enter