Intro
e|--------------------------------------------------------------|
B|--------------------------------------------------------------|
G|-7-7-7-7-7-7/8-5--7-7-7-7-7-7/8-5--7-7-7-7-7-7/8-5---5-5------|
D|-0-0-0-0-0-0/0-0--0-0-0-0-0-0/0-0--0-0-0-0-0-0/0-0---5-5--5-5-|
A|-5-5-5-5-5-5/6-3--5-5-5-5-5-5/6-3--5-5-5-5-5-5/6-3---3-3--5-5-|
E|----------------------------------------------------------3-3-|

  Verse
e|-------------------------------------------------------------|
B|-------------------------------------------------------------|
G|-7-7-7-7-7-7-7-5--7-7-7-7-7-7-7-5--7-7-7-7-7-7-7-5--5-5------|
D|-7-7-7-7-7-7-7-5--7-7-7-7-7-7-7-5--7-7-7-7-7-7-7-5--5-5--5-5-|
A|-5-5-5-5-5-5-5-3--5-5-5-5-5-5-5-3--5-5-5-5-5-5-5-3--3-3--5-5-|
E|---------------------------------------------------------3-3-|
PM............................................    

  Chorus
e|-----------------------------------------|
B|-----------------------------------------|
G|-5-/-7---5-/-7---5-/-7-------------------|
D|-x-/-x---x-/-x---x-/-x----5-5-5-6-6-3-3--|
A|-3-/-5---3-/-5---3-/-5----5-5-5-6-6-3-3--|
E|--------------------------3-3-3-4-4-1-1--|
 
  Solo                                                
e|-------------------------------------------|
B|-------------------------------------------|
G|-7--5-7-5---7--5-7-5--7--5-7-5-8-7-5-------|
D|-7----------7---------7--------------7-5---|
A|-5----------5---------5--------------------|
E|-------------------------------------------|

  Chorus 2
e|--------------------------------------|        |---------------|
B|--------------------------------------|Then    |---------------|
G|-5--7---5--7---5--7-------------------|this on |---------------|
D|-5--7---5--7---5--7----5-5-5-6-6-3-3--|the 4th |-5-5-5-6-6-7-7-|
A|-3--5---3--5---3--5----5-5-5-6-6-3-3--|time.   |-5-5-5-6-6-7-7-|
E|-----------------------3-3-3-4-4-1-1--|        |-3-3-3-4-4-5-5-|
 
                 

  Bridge
e|----------------------------------------------------------------------|
B|----------------------------------------------------------------------|
G|----------------------------------------------------------------------|
D|-8-----6-6-8-8--5-----3-3-5-5--8-----6-6-8-8--7-----5-5-7-7------5-5-7|
A|-8-8-8----------5-5-5----------8-8-8----------7-7-7----------7-7------|
E|-6--------------3--------------6--------------5-----------------------|
                                                             
Song Order:
Intro     2x
Verse     2x
Chorus    4x
Solo      2x
Verse     2x
Chorus 2  2x
Bridge    1x
Intro     2x
Chorus    4x


Текст, аккорды и табулатура для песни "Get Free (ver 9)", исполняет "Vines".
Используемые в песне аккорды можно найти в разделе Как брать аккорды. Аккорды для шестиструнной гитары. Другие песни можно найти на нашем сайте, воспользовавшись алфавитным указателем вверху страницы.


 
Ошибка в тексте? Выделите ошибку и нажмите Ctrl+Enter