Artist: The Vines                    Album: Winning Days
Song: F.T.W                          Tabbed By James Morris

For this song, I have tabbed the bass and guitar parts.
To get the realistic sound for the bass, drop the top E string to A.

Intro (bass arranged for guitar)

E----------------------------
B----------------------------
G----------------------------
D---------------------------- x4
A----------------------------
A-0-3-0-3-0--10-10-10-9--8-8-

Then the guitars come in.

Guitars 1 and 2

E-------------------------
B------------8-8-8-7--6-6-
G-2-2-2-2-2--7-7-7-6--5-5-
D-2-2-2-2-2--5-5-5-4--3-3- x4
A-0-0-0-0-0---------------
E-------------------------

Verse

Bass arranged for guitar.

E----------------------------
B----------------------------
G----------------------------
D---------------------------- x4
A----------------------------
A-0-3-0-3-0--10-10-10-9--8-8-
 
Guitars 1 and 2

E---------------------------
B---------------------------
G--2----2----2----2---2-2-2- x4
D--2—---2----2----2---2-2-2-
A--0----0----0----0---0-0-0-
E---------------------------

Then

Guitars 1 and 2

E-------------------------
B------------8-8-8-7--6-6-
G-2-2-2-2-2--7-7-7-6--5-5-
D-2-2-2-2-2--5-5-5-4--3-3- x4
A-0-0-0-0-0---------------
E-------------------------

Bass arranged for guitar.

E----------------------------
B----------------------------
G----------------------------
D---------------------------- x4
A----------------------------
A-0-3-0-3-0--10-10-10-9--8-8-

Bridge
Guitar 1

E------------------------------
B------------------------------
G-2-2-2-2-2-10-10-10-11--12-12-
D-x-x-x-x-x--x--x--x--x---x--x- x4
A-0-0-0-0-0--8--8--8--9--10-10-
E------------------------------

Guitar 2

E----------------------------
B----------------------------
G---2----2----2----2---2--2-2- x4
D---2—---2----2----2---2--2-2-
A---0----0----0----0---0--0-0-
E----------------------------

Solo (Guitar 1)

E-------------------------------------------------
B-------------------------------------------------
G-12-12-12-12-12-12-12-12-12-12-12-12-12-12-12-12-
D------------------------------------------------- x4
A-------------------------------------------------
E-------------------------------------------------
Chorus

Guitars 1 and 2

E-------------------------
B------------8-8-8-7--6-6-
G-2-2-2-2-2--7-7-7-6--5-5-
D-2-2-2-2-2--5-5-5-4--3-3- x4
A-0-0-0-0-0---------------
E-------------------------

Verse 2

Bass arranged for guitar.

E----------------------------
B----------------------------
G----------------------------
D---------------------------- x4
A----------------------------
A-0-3-0-3-0--10-10-10-9--8-8-

Then

Chorus

Guitars 1 and 2

E-------------------------
B------------8-8-8-7--6-6-
G-2-2-2-2-2--7-7-7-6--5-5-
D-2-2-2-2-2--5-5-5-4--3-3- x8
A-0-0-0-0-0---------------
E-------------------------

Breakdown/Chorus Build Up

Guitar 1

E------------------------------
B------------------------------
G-2-2-2-2-2-10-10-10-11--12-12-
D-x-x-x-x-x--x--x--x--x---x--x- x4
A-0-0-0-0-0--8--8--8--9--10-10-
E------------------------------


Guitar 2

E------------------------------
B------------------------------
G-2----------------------------
D-2---------------------------- x4
A-0----------------------------
E------------------------------

Chorus/Outro

Guitars 1 and 2

E-------------------------
B------------8-8-8-7--6-6-
G-2-2-2-2-2--7-7-7-6--5-5-
D-2-2-2-2-2--5-5-5-4--3-3- x8
A-0-0-0-0-0---------------
E-------------------------

Then

Guitars 1 and 2

E------------------------------
B------------------------------
G-2----------------------------
D-2---------------------------- 
A-0----------------------------
E------------------------------

That's it. That is the whole song. Please rate. Thanks.

Here are the lyrics. 

Walk the fields and we stare at the ocean
Roll the wheel but forget the notion
Life was better before was smaller
The minds computer will f**k the world up

Feels like a dream, I know you want it
Don't feel supreme, Nobody got it

World, C'mon f**k the world
C'mon f**k the world, C'mon f**k the world

Walk the fields and we stare at the ocean
Roll the wheel but forget the notion
Life was better before was smaller
The minds computer will f**k the world up

Feels like a dream, I know you want it
Don't feel supreme, Nobody got it

World, C'mon f**k the world
World, C'mon f**k the world, 
World, C'mon f**k the world
World, C'mon f**k the world

F**k the world don't
F**k the world don't
F**k the world don't
F**k the world don't

Feels like a dream, I know you want it
Don't feel supreme, Nobody got it

World, C'mon f**k the world
World, C'mon f**k the world, 
World, C'mon f**k the world
World, C'mon f**k the world


Текст, аккорды и табулатура для песни "F.t.w.", исполняет "Vines".
Используемые в песне аккорды можно найти в разделе Как брать аккорды. Аккорды для шестиструнной гитары. Другие песни можно найти на нашем сайте, воспользовавшись алфавитным указателем вверху страницы.


 
Ошибка в тексте? Выделите ошибку и нажмите Ctrl+Enter