Artist: The Vines
Song: Fuck The World (Track #11/11)
Album: Winning Days
Tabber: Sam Scherdel
Email address: [email protected]

b: Bend
x: palm mute
h: hammer on

0:01 This Is The Bass Part For The Opening Of The Song, and most of the song

G--------------------------------
D--------------5-5-5-4-3---------
A--0-3b-0-3b-0-------------------
E--------------------------------



0:14

E----------------------------------------
B----------------------------------------
G--2-2-2-2-2-2-2-2--5-5-5----------------
D--2-2-2-2-2-2-2-2--5-5-5--4-4-4-4-------
A--0-0-0-0-0-0-0-0--3-3-3--4-4-4-4-------
E--------------------------2-2-2-2-------


E----------------------------------------
B----------------------------------------
G--2-2-2-2-2-2-2-2--5-5-5----------------
D--2-2-2-2-2-2-2-2--5-5-5--4-4-4-4-------
A--0-0-0-0-0-0-0-0--3-3-3--4-4-4-4-------
E--------------------------2-2-2-2-------


E----------------------------------------
B----------------------------------------
G--2-2-2-2-2-2-2-2--5-5-5----------------
D--2-2-2-2-2-2-2-2--5-5-5--4-4-4-4-------
A--0-0-0-0-0-0-0-0--3-3-3--4-4-4-4-------
E--------------------------2-2-2-2-------

E----------------------------------------
B----------------------------------------
G--2-2-2-2-2-2-2-2--5-5-5----------------
D--2-2-2-2-2-2-2-2--5-5-5--4-4-4-4-------
A--0-0-0-0-0-0-0-0--3-3-3--4-4-4-4-------
E--------------------------2-2-2-2-------



0:28


E----------------------------------------
B----------------------------------------
G--2------2------5-----------------------
D--2------2------5-------4b4-------------
A--0------0------3-------4b4-------------
E------------------------2b2-------------


E----------------------------------------
B----------------------------------------
G--2------2------5-----------------------
D--2------2------5-------4b4-------------
A--0------0------3-------4b4-------------
E------------------------2b2-------------


E----------------------------------------
B----------------------------------------
G--2------2------5-----------------------
D--2------2------5-------4b4-------------
A--0------0------3-------4b4-------------
E------------------------2b2-------------


E----------------------------------------
B----------------------------------------
G--2------2------5-----------------------
D--2------2------5-------4b4-------------
A--0------0------3-------4b4-------------
E------------------------2b2-------------



0:42 Chorus

E----------------------------------------
B----------------------------------------
G--2-2-2-2-2-2-2-2--5-5-5----------------
D--2-2-2-2-2-2-2-2--5-5-5--4-4-4-4-------
A--0-0-0-0-0-0-0-0--3-3-3--4-4-4-4-------
E--------------------------2-2-2-2-------


E----------------------------------------
B----------------------------------------
G--2-2-2-2-2-2-2-2--5-5-5----------------
D--2-2-2-2-2-2-2-2--5-5-5--4-4-4-4-------
A--0-0-0-0-0-0-0-0--3-3-3--4-4-4-4-------
E--------------------------2-2-2-2-------


E----------------------------------------
B----------------------------------------
G--2-2-2-2-2-2-2-2--5-5-5----------------
D--2-2-2-2-2-2-2-2--5-5-5--4-4-4-4-------
A--0-0-0-0-0-0-0-0--3-3-3--4-4-4-4-------
E--------------------------2-2-2-2-------

E----------------------------------------
B----------------------------------------
G--2-2-2-2-2-2-2-2--5-5-5----------------
D--2-2-2-2-2-2-2-2--5-5-5--4-4-4-4-------
A--0-0-0-0-0-0-0-0--3-3-3--4-4-4-4-------
E--------------------------2-2-2-2-------


0:56

E----------------------------------------
B----------------------------------------
G--2------2------5-----------------------
D--2------2------5-------4b4-------------
A--0------0------3-------4b4-------------
E------------------------2b2-------------


E----------------------------------------
B----------------------------------------
G--2------2------5-----------------------
D--2------2------5-------4b4-------------
A--0------0------3-------4b4-------------
E------------------------2b2-------------


E----------------------------------------
B----------------------------------------
G--2------2------5-----------------------
D--2------2------5-------4b4-------------
A--0------0------3-------4b4-------------
E------------------------2b2-------------


E----------------------------------------
B----------------------------------------
G--2------2------5-----------------------
D--2------2------5-------4b4-------------
A--0------0------3-------4b4-------------
E------------------------2b2-------------

at this point there is also a second guitar playing a palm mute prgression

E----------------------------------------
B----------------------------------------
G----------------------------------------
D----------------------------4-4-4-4-----
A--0-0-0-0-0-0-0-0-3-3-3-3-3-------------
E----------------------------------------
   x x x x x x x x x x x x x x x x x 


1:11


The bass line changes here, and after this the bass line goes back to first one
and stays the same for the remainder of the song


The bass line
G--------------------------------------------------
D--------------------------------------------------
A--0-0-0h3b-0h5b-6-5-3-----------------------------
E-----------------------0-0-0h3b-0h5b-6-5-3--------

G--------------------------------------------------
D--------------------------------------------------
A--0-0-0h3b-0h5b-6-5-3-----------------------------
E-----------------------0-0-0h3b-0h5b-6-5-3--------

G--------------------------------------------------
D--------------------------------------------------
A--0-0-0h3b-0h5b-6-5-3-----------------------------
E-----------------------0-0-0h3b-0h5b-6-5-3--------

G--------------------------------------------------
D--------------------------------------------------
A--0-0-0h3b-0h5b-6-5-3s12-12-12-12-12-12-12-12-12--
E--------------------------------------------------


The Guitar that accompanys this paert is quite simple, but to pull off nicholl's
effects on the song a pedal is required, a whammy bar works well here, if not just
fiddle about with bends on each string.


E-----------------------------------------------------------------------
B-----------------------------------------------------------------------
G-5s12-12-12-12-12-12-12-12-12-12-12-12-12-12-12-12-12-12-12-12-12-12-12
D-----------------------------------------------------------------------
A-----------------------------------------------------------------------
E-----------------------------------------------------------------------

E-----------------------------------------------------------------------
B-----------------------------------------------------------------------
G-5s12-12-12-12-12-12-12-12-12-12-12-12-12-12-12-12-12-12-12-12-12-12-12
D-----------------------------------------------------------------------
A-----------------------------------------------------------------------
E-----------------------------------------------------------------------


E-----------------------------------------------------------------------
B-----------------------------------------------------------------------
G-5s12-12-12-12-12-12-12-12-12-12-12-12-12-12-12-12-12-12-12-12-12-12-12
D-----------------------------------------------------------------------
A-----------------------------------------------------------------------
E-----------------------------------------------------------------------


E-----------------------------------------------------------------------
B-----------------------------------------------------------------------
G-5s12-12-12-12-12-12-12-12-12-12-12-12-12-12-12h14-14-14-14-14-14-14-14
D-----------------------------------------------------------------------
A-----------------------------------------------------------------------
E-----------------------------------------------------------------------


1:25 


E----------------------------------------
B----------------------------------------
G--2-2-2-2-2-2-2-2--5-5-5----------------
D--2-2-2-2-2-2-2-2--5-5-5--4-4-4-4-------
A--0-0-0-0-0-0-0-0--3-3-3--4-4-4-4-------
E--------------------------2-2-2-2-------


E----------------------------------------
B----------------------------------------
G--2-2-2-2-2-2-2-2--5-5-5----------------
D--2-2-2-2-2-2-2-2--5-5-5--4-4-4-4-------
A--0-0-0-0-0-0-0-0--3-3-3--4-4-4-4-------
E--------------------------2-2-2-2-------


E----------------------------------------
B----------------------------------------
G--2-2-2-2-2-2-2-2--5-5-5----------------
D--2-2-2-2-2-2-2-2--5-5-5--4-4-4-4-------
A--0-0-0-0-0-0-0-0--3-3-3--4-4-4-4-------
E--------------------------2-2-2-2-------

E----------------------------------------
B----------------------------------------
G--2-2-2-2-2-2-2-2--5-5-5----------------
D--2-2-2-2-2-2-2-2--5-5-5--4-4-4-4-------
A--0-0-0-0-0-0-0-0--3-3-3--4-4-4-4-------
E--------------------------2-2-2-2-------


1:40 no guitar cept for effect, sounds very similar to intro, however if you play
on the 14th fret on the g string, it should give off a good effect


1:54

E----------------------------------------
B----------------------------------------
G--2-2-2-2-2-2-2-2--5-5-5----------------
D--2-2-2-2-2-2-2-2--5-5-5--4-4-4-4-------
A--0-0-0-0-0-0-0-0--3-3-3--4-4-4-4-------
E--------------------------2-2-2-2-------


E----------------------------------------
B----------------------------------------
G--2-2-2-2-2-2-2-2--5-5-5----------------
D--2-2-2-2-2-2-2-2--5-5-5--4-4-4-4-------
A--0-0-0-0-0-0-0-0--3-3-3--4-4-4-4-------
E--------------------------2-2-2-2-------


E----------------------------------------
B----------------------------------------
G--2-2-2-2-2-2-2-2--5-5-5----------------
D--2-2-2-2-2-2-2-2--5-5-5--4-4-4-4-------
A--0-0-0-0-0-0-0-0--3-3-3--4-4-4-4-------
E--------------------------2-2-2-2-------

E----------------------------------------
B----------------------------------------
G--2-2-2-2-2-2-2-2--5-5-5----------------
D--2-2-2-2-2-2-2-2--5-5-5--4-4-4-4-------
A--0-0-0-0-0-0-0-0--3-3-3--4-4-4-4-------
E--------------------------2-2-2-2-------

E----------------------------------------
B----------------------------------------
G--2-2-2-2-2-2-2-2--5-5-5----------------
D--2-2-2-2-2-2-2-2--5-5-5--4-4-4-4-------
A--0-0-0-0-0-0-0-0--3-3-3--4-4-4-4-------
E--------------------------2-2-2-2-------


E----------------------------------------
B----------------------------------------
G--2-2-2-2-2-2-2-2--5-5-5----------------
D--2-2-2-2-2-2-2-2--5-5-5--4-4-4-4-------
A--0-0-0-0-0-0-0-0--3-3-3--4-4-4-4-------
E--------------------------2-2-2-2-------


E----------------------------------------
B----------------------------------------
G--2-2-2-2-2-2-2-2--5-5-5----------------
D--2-2-2-2-2-2-2-2--5-5-5--4-4-4-4-------
A--0-0-0-0-0-0-0-0--3-3-3--4-4-4-4-------
E--------------------------2-2-2-2-------

E----------------------------------------
B----------------------------------------
G--2-2-2-2-2-2-2-2--5-5-5----------------
D--2-2-2-2-2-2-2-2--5-5-5--4-4-4-4-------
A--0-0-0-0-0-0-0-0--3-3-3--4-4-4-4-------
E--------------------------2-2-2-2-------


2:22 this is the final bass line change, and it plays the same as guitar, just without the P/M

E----------------------------------------
B----------------------------------------
G----------------------------------------
D----------------------------4-4-4-4-----
A--0-0-0-0-0-0-0-0-3-3-3-3-3-------------
E----------------------------------------
   x x x x x x x x x x x x x x x x x 

E----------------------------------------
B----------------------------------------
G----------------------------------------
D----------------------------4-4-4-4-----
A--0-0-0-0-0-0-0-0-3-3-3-3-3-------------
E----------------------------------------
   x x x x x x x x x x x x x x x x x 

E----------------------------------------
B----------------------------------------
G----------------------------------------
D----------------------------4-4-4-4-----
A--0-0-0-0-0-0-0-0-3-3-3-3-3-------------
E----------------------------------------
   x x x x x x x x x x x x x x x x x 

E----------------------------------------
B----------------------------------------
G----------------------------------------
D----------------------------4-4-4-4-----
A--0-0-0-0-0-0-0-0-3-3-3-3-3-------------
E----------------------------------------
   x x x x x x x x x x x x x x x x x 


2:36 just play the chorus part or the main progression till 3:05 when the song ends


Hope this had helped, this is my first tab, and i hope its kind of accurate
please scheck out my band at http://www.empathyband.tk/


Текст, аккорды и табулатура для песни "F.t.w.", исполняет "Vines".
Используемые в песне аккорды можно найти в разделе Как брать аккорды. Аккорды для шестиструнной гитары. Другие песни можно найти на нашем сайте, воспользовавшись алфавитным указателем вверху страницы.


 
Ошибка в тексте? Выделите ошибку и нажмите Ctrl+Enter