Vines - Factory
Submitted By: Daniel Taylor
EMail: [email protected]


Standard Tuning (e B G D A E)

e|--3---3---3---3---||
B|--3---3---3---3---||
G|--4---4---4---4---||
D|------------------||
A|------------------||
E|------------------||   Play that 6 times

e|--2---2---2---2---||
B|--3---3---3---3---||
G|--2---2---2---2---||
D|------------------||
A|------------------||
E|------------------||   Play 4 times

Distortion kicks in

e|----------------||
B|----------------||
G|----------------||
D|--5--4--3--2----||
A|--5--4--3--2----||
E|--3--2--1--0----||

Bridge

e|-------------------------------------------------------||
B|-------------------------------------------------------||
G|------------------5------------------------------------||
D|--0--2---0--2-----5-------5------7----7--5-5--7---5----||
A|--0--2---0--2-----3-------5------7----7--5-5--7---5----||
E|-----0------0-------------3------5----5--3-3--5---3----||

e|----------------------||
B|----------------------||
G|----------------------||
D|--7-----7---5-5--7----||
A|--7-----7---5-5--7----||
E|--5-----5---3-3--5----||

e|-------------------------------------------------------||
B|-------------------------------------------------------||
G|------------------5------------------------------------||
D|--0--2---0--2-----5-------5------7----7--5-5--7---5----||
A|--0--2---0--2-----3-------5------7----7--5-5--7---5----||
E|-----0------0-------------3------5----5--3-3--5---3----||

e|------------------------||
B|------------------------||
G|------------------------||
D|--7---------------------||
A|--7---------------------||
E|--5---6--5--6--5--3--0--||

Solo

e|------------------------------------------------------------------||
B|------------------------------------------------------------------||
G|--12---12-12-12--11---9-----9h11--9---7------7-------5----5/7-----||
D|------------------------------------------------9---------------7-||
A|------------------------------------------------------------------||
E|------------------------------------------------------------------||

e|------------------------------------------------------------------||
B|--------------------------------------------5----3----------------||
G|--11---11-11----9-9-9--9--7---5---5-5-4--4---------------12---12--||
D|------------------------------------------------------------------||
A|------------------------------------------------------------------||
E|------------------------------------------------------------------||

e|------------------------------------------------------------------||
B|--12---10-10-10--10--8--7-----7----5---7---7/10------7------------||
G|------------------------------------------------------------------||
D|------------------------------------------------------------------||
A|------------------------------------------------------------------||
E|------------------------------------------------------------------||

e|------------------------------------------------------------------||
B|---7--7---7/8----8--8---7---5----5h7--5------------------------5--||
G|--------------------------------------------7-----7---5---4-------||
D|------------------------------------------------------------------||
A|------------------------------------------------------------------||
E|------------------------------------------------------------------||

e|--------------------------------||
B|-----5h6p5--------3-----3^------||
G|--------------------------------||
D|--------------------------------||
A|--------------------------------||
E|--------------------------------||

e|----------------||
B|----------------||
G|----------------||
D|--5--4--3--2----||
A|--5--4--3--2----||
E|--3--2--1--0----||

e|------------------------||
B|------------------------||
G|------------------------||
D|--7---------------------||
A|--7---------------------||
E|--5---6--5--6--5--3--0--||

Outro

e|--3--3--3--3--3--3--3--3--3--3--3--3--3--3--3--3--3--3--3--3--||
B|--3--3--3--3--3--3--3--3--3--3--3--3--3--3--3--3--3--3--3--3--||
G|--4--4--4--4--4--4--4--4--3--3--3--3--3--3--3--3--3--3--3--3--||
D|--------------------------------------------------------------||
A|--------------------------------------------------------------||
E|--------------------------------------------------------------||

e|--3--||
B|--3--||
G|--4--||
D|--5--||
A|--5--||
E|--3--||

There you go.


Текст, аккорды и табулатура для песни "Factory", исполняет "Vines".
Используемые в песне аккорды можно найти в разделе Как брать аккорды. Аккорды для шестиструнной гитары. Другие песни можно найти на нашем сайте, воспользовавшись алфавитным указателем вверху страницы.


 
Ошибка в тексте? Выделите ошибку и нажмите Ctrl+Enter