Title: Country Yard  
Band: The Vines 
Album: Highly Evolved 
Tabbed by Richie   [email protected] 
Email me if you have any queries or ideas for changes.

INTRO/VERSES 

E-------------------------------------------------------------
B-------------------------------------------------------------
G--------2 -------------0---0---------------------------------
D-------2-----2----- 2--------------0----0----0-------0-------
A------0-----0------3-----3--------2--------2-----------------      
E---------------------------------3-----3--3--------3---------

I'm tired of feeling sick and useless 

E--------------------------------------------------------------
B--------------------------------------------------------------
G--------2 ------------0---0-----------------------------------
D-------2-----2----- 2--------------0----0----0------0---------
A------0-----0------3-----3--------2--------2------------------      
E---------------------------------3-----3--3--------3----------

then speaking every other way  

E----------------------------------------------------------------
B----------------------------------------------------------------
G--------2 -------------0---0------------------------------------
D-------2-----2----- 2--------------0----0---0-------0--------0--  
A------0-----0------3-----3--------2--------2--------------0h2---
E---------------------------------3-----3--3--------3----3-------

gluing my eyes together girl  

E----------------------------------------0--
B----------------------------------------0--
G--------2------------2------------------0--
D-------------------------------------------
A------3-----3-----3------3-----------------
E----1------1----1------1-------0-----------

     Might be the        right escape 

E-----------------------------------------------------------
B-----------------------------------------------------------
G--------2 ------------0---0--------------------------------
D-------2-----2----- 2--------------0----0----0------0------
A------0-----0------3-----3--------2---------2--------------      
E---------------------------------3-----3--3--------3-------

There’s nothing in the secret garden  


E-----------------------------------------------------------
B-----------------------------------------------------------
G--------2 ------------0----0-------------------------------
D-------2-----2----- 2--------------0----0----0------0------
A------0-----0------3-----3--------2--------2---------------      
E---------------------------------3-----3--3--------3-------

just images of blue and white  

E------------------------------------------------------------------
B------------------------------------------------------------------
G--------2 ------------0---0---------------------------------------
D-------2-----2----- 2--------------0----0----0------0-----------0-
A------0-----0------3-----3--------2--------2----------------0h2---     
E---------------------------------3-----3--3--------3------3-------
 

losing my mind forever girl    

E----------------------------------------0--
B----------------------------------------0--
G---------2---------2--------------------0--
D-------------------------------------------
A-------3-----3---3-------------------------
E----1------1----1------1-------0-----------

Maybe the only sign 

CHORUS: 
(2nd Guitar plays single up strokes on the same chords)

E--------------------------------------------------2----------     
B----------2-------------5--------------3----------3----------
G----------2-------------6--------------4----------4----------
D-------2--------------6----------------5--------4------------ 
A-----0--------------4----------------5--------2--------------
E-----------------------------------3-------------------------                                                  

Down in a country yard 
I was taken by the shadows 
although we couldn't see that far 
I was dreaming of tomorrow 
I really don't need a change 
I really don't need what's mine 
out in a country yard 
it'll be just fine 
 
INTERLUDE?: (Same chords from the chorus , strummed) 

A, C#m , G, Bm

”aaaaaaahhhhhhhhhiiiiiii “[x4]
 


REPEAT CHORUS

Then Interlude Again: 

A , C#m , G, Bm    (X4) 

A, G#m, G, F#m    (X4) 

”aaaaaaahhhhhhhhhiiiiiii” 

Then… 
(Single strums) 

A, C, G

Last Outro: 

(Same chords as chorus finger picked)


Текст, аккорды и табулатура для песни "Country Yard", исполняет "Vines".
Используемые в песне аккорды можно найти в разделе Как брать аккорды. Аккорды для шестиструнной гитары. Другие песни можно найти на нашем сайте, воспользовавшись алфавитным указателем вверху страницы.


 
Ошибка в тексте? Выделите ошибку и нажмите Ctrl+Enter