Tabbber: Bareman5000
Band: Vines
Album:Highly Evolved
Song Autumn Shade

Chords
Em(022000)
C(032010)
Bb(x133xx)
Fm(133xxx)

Em                   C
Slip into the autumn shade
                  Bb
I could Sleep for days
                   Fm
But I like the sun when
Em                 C
I can hear another sound
               Bb
It's along way down
Am
Keep my head up
Em                     C
Who are you to be this way
            Bb
Dreamin so insane
                   Fm
But I like the sun when
Em                      C
Falling through another plain
              Bb
Never one the same
Am
Keep my head up

e|-7-7---------------------------------------------------------------------------------------------
B|------8-8--5-5-3~----5-3-5-3-6~---8--8fb~---6-4-4b-----------------------------------------------
G|---------------------------------------------------5--4-4--7-4-7-9--------------------8-8--6--4--
D|-------------------------------------------------------------------10------8-10-8~---------------
A|-----------------------------------------------------------------------10------------------------
E|-------------------------------------------------------------------------------------------------

e|-------------------------------------------------------------------------------------------------
B|-------------------------------------------------------------------------------------------------
G|-----------------------3~---2-0~--3-2-0-3-2-0-4-------------------------3~---2-0~--3-2-0-3-2-0-4~
D|-2~--2--4/5-2~--2--4/5---------------------------2~--2--4/5-2~--2--4/5---------------------------
A|-------------------------------------------------------------------------------------------------
E|-------------------------------------------------------------------------------------------------


Текст, аккорды и табулатура для песни "Autumn Shade", исполняет "Vines".
Используемые в песне аккорды можно найти в разделе Как брать аккорды. Аккорды для шестиструнной гитары. Другие песни можно найти на нашем сайте, воспользовавшись алфавитным указателем вверху страницы.


 
Ошибка в тексте? Выделите ошибку и нажмите Ctrl+Enter