P1.                                           P1.
E|----7---------7-----|-----5------------------|--
H|---8--8--8---8--8---|----6--6-------6---6--6-|--
G|--7----7----7-------|---7----7-----7---7-----|--
D|0----------9-----9-7|-0--------5-7----0---7--|--

|----5-----------------|
|---6--6-----6---6-----|
|--7----7---7---7------|
|0-------5-7---0---7-5-|

  X2
E|----1-----------------------1------0>1----|
H|---3--3-3----3----3--------3--3--3----3-3-|
G|--3----3----3----3--------2----2-------2--|
D|0---------3----2----0>2>0----------0------|

G                             Dm
Серый вечер пуст, как пусто бутылки дно;
Как без листьев куст, что веткой стучит в окно.
B           Dm           B           Dm
Пустота там и везде, в пустоте кончился день.

Пусто на столе, лишь пепельница полна;
Пусто на душе и кончился баттл вина.
Пустота там и везде,
В пустоте кончился день.

Am7(V)              D#(VI)
Утром, едва лишь открыв глаза,
Am7                 D#
Утром я вряд ли смогу сказать
           Gm7    Fm7                       Gm7
Как тебя звать, и как ты сюда попала, в эту кровать.
    Fm7                                Gm7  Gm6
Но так ли все это важно, хочется спать.

Солнце лезет в глаза рукой,
Аллу заводят за стеной;
Где ты, покой?
Звонит телефон над ухом -
Кто там такой?
Жужжит назойливо муха надо мной и тобой.


Текст, аккорды и табулатура для песни "Пустота", исполняет "Выход".
Используемые в песне аккорды можно найти в разделе Как брать аккорды. Аккорды для шестиструнной гитары. Другие песни можно найти на нашем сайте, воспользовавшись алфавитным указателем вверху страницы.


 
Ошибка в тексте? Выделите ошибку и нажмите Ctrl+Enter