The Verve Pipe, Freshmen.
Tabbed by Chip, [email protected]
  
*This version has a CAPO on the 2nd fret of the 1st
 Guitar
*This version has STANDARD TUNING (EADGBe)

Riff 1 (Guitar 1) CAPO on 2nd fret
e:--------------0--------|--------------3--|
B:--------3-----------3--|--------3--------|
G:-----2-----2-----2-----|-----0-----0-----|
D:--0--------------------|-----------------|
A:-----------------------|-----------------|
E:-----------------------|--3--------------|

e:--------------------|-----------------||
B:--------------3-----|--------------0--||
G:--------4-----------|--------0--------||
D:-----4-----4--------|-----0-----0-----||
A:--2--------------0--|-----------------||
E:--------------------|--3--------------||

Riff 2 (Guitar 1)
e:-----------------------------------------||
B:--------------------------------------0--||
G:--------4-----------2-----------0--------||
D:-----4-----4-----0-----0-----0-----0-----||
A:--2-----------0--------------------------||
E:--------------------------3--------------||

Fill 1 (Guitar 2) No CAPO
e:------------------|------------------||
B:--0-h-2--5-/-7~~~~|--0-h-2--5-/-4~~~~||
G:------------------|------------------||
D:------------------|------------------||
A:------------------|------------------||
E:------------------|------------------||

Fill 2 (Guitar 2) No CAPO
e:---------------------------------||
B:--5h4p5--5h4p5--5h4p5--7--5h4p5--||
G:---------------------------------||
D:---------------------------------||
A:---------------------------------||
E:---------------------------------|| 

:: Ultimate Guitar Archive :: 
http://www.ultimate-guitar.com


Текст, аккорды и табулатура для песни "Freshmen", исполняет "Verve".
Используемые в песне аккорды можно найти в разделе Как брать аккорды. Аккорды для шестиструнной гитары. Другие песни можно найти на нашем сайте, воспользовавшись алфавитным указателем вверху страницы.


 
Ошибка в тексте? Выделите ошибку и нажмите Ctrl+Enter