V E R D E N A
OVUNQUE

Il basso entra con la batteria:
Gb|--------------------------------------------------------------------------------------------
Db|--------------------------------------------------------------------------------------------
Ab|-------------------------------3-3-3-3-3-3-3-3-3-3-3-3-3-3-3-3------------------------------
Eb|-0-0-0-0-0-0-0-3-3-3-3-3-3-3-3--------------------------------0-0-0-0-0-0-0-3-3-3-3-3-3-3-3/

Ritornello:
Gb|--------------------------------------------------------------------------------------------
Db|--------------------------------------------------------------------------------------------
Ab|-7-7-7----------------------------7-7-7------------------ult.volta -7-7-7-7-7-7-7-7-7-7-7-7/
Eb|----------0-0-0-0/8-8-8-8-8-8-8-8--------0-0-0-0-/8-8-8-8-8-8-8-----------------------------                                                                

Fine:
Gb|-------------------------------
Db|-------------------------------
Ab|-------------------------------
Eb|-2^0----2^-0----2^-0------14^0/    


/= slide
^= bend
x= armonica (queste note sfiorando solo le corde)

per suggerimenti o rimproveri scrivi a: [email protected]


Текст, аккорды и табулатура для песни "Ovunque", исполняет "Verdena".
Используемые в песне аккорды можно найти в разделе Как брать аккорды. Аккорды для шестиструнной гитары. Другие песни можно найти на нашем сайте, воспользовавшись алфавитным указателем вверху страницы.


 
Ошибка в тексте? Выделите ошибку и нажмите Ctrl+Enter