Venom - The Seven Gates of Hell
                  Copyright 1994 - Red Light Records
                     Version 1.0 - October- 2001
Transcribed by: Mike B. 

For Questions, Comments, Newest Version, or Corrections contact
Steve S.: at [email protected]

..  - palm mute          /  - slide up to
   - slide down to      ~  - vibrato
 h  - hammer on          b  - bend
 p  - pull off            Suffixes for bend
                          ph - pinch harmonic
                           f - full bend    h - half bend
*  - see comment           r - release      t - tap bend
X  - percussion mute       ~ - vibrato bend
@  - slight palm mute     () - ghost note, sustained note

Drop D tuning

The Seven Gates of Hell

A
|----------------------|---------------------------------------------|
|----------------------|---------------------------------------------|
|----------------------|---------------------------------------------|
|----------------------|--0-------5/7--7-----------------------------| 
|--87--75--5/7--7/9--|--0-------3/5--5-----------------------------|
|--87--75--5/7--7/8--|--0--0-0-------------------------------------|
|                            . .                                     |
|----------------------|---------------------------------------------|
|----------------------|---------------------------------------------|
|----------------------|---------------------------------------------|
|----------------------|--0-------5/7--7-----------------------------| 
|--87--75--53--31--|--0-------3/5--5-----------------------------|
|--87--75--53--31--|--0--0-0-------------------------------------|
                             . .
B                                                           
|---------------|----------------------------------------------------|
|---------------|----------------------------------------------------|
|---------------|----------------------------------------------------|
|--------10--8--|----------5/7--7------------------------------------|
|--0------8--6--|--0-------3/5--5------------------------------------|
|--0--0-0-------|--0--0-0--------------------------------------------|
|     . .             . .                                            |
|--------------------------------------------------------------------|
|--------------------------------------------------------------------|
|--------------------------------------------------------------------|
|---------10--8------------------------------------------------------|
|--0-------8--6------------------------------------------------------|
|--0--0-0------------------------------------------------------------|
      . .     
C
|------------------|-------------------------------------------------|
|------------------|-------------------------------------------------|
|------------------|-------------------------------------------------|
|----------5/7--7--|---------10--8--6-----------x4------------------|
|--0-------3/5--5--|--0-------8--6--6-------------------------------|
|--0--0-0----------|--0--0-0-----------------------------------------|
      . .                . .                                              
D
|---------------------------|--------|-------------------------------|
|---------------------------|--------|-------------------------------|
|---------------------------|--------|-------------------------------|
|-----------3---------------|--5--7--|--3--5-------------------------|
|--5h6p5--3---6--5--3--6-5--|--5--7--|--3--5-------------------------|
|---------------------------|--5--7--|--3--5--10--------------------|
|                                                                    |
|------------------|----------------|--------|-----------------------|
|------------------|----------------|--------|-----------------------|
|------------------|----------------|--------|-----------------------|
|----------5/7--7--|---------10--8--|--5--7--|--3--5-----------------|
|--0-------3/5--5--|--0-------8--6--|--5--7--|--3--5-----------------|
|--0--0-0----------|--0--0-0--------|--5--7--|--3--5-----------------|
|     . .                . .                                         |
|------------------|--------------|-----------------|----------------|
|------------------|--------------|-----------------|----------------|
|------------------|--------------|-----------------|----------------|
|----------5/7--7--|--------10--8-|---------5/7--7--|---------10--8--|
|--0-------3/5--5--|-0-------8--6-|-0-------3/5--5--|--0-------8--6--|
|--0--0-0----------|-0--0-0-------|-0--0-0----------|--0--0-0--------|
|     . .               . .            . .                . .        |
|-----------------|--------------------------------------------------|
|-----------------|--------------------------------------------------|
|-----------2-----|--------2-----------------------------------------|
|-----0--3-----2--|-----3--------------------------------------------|
|--1--------------|--0-----------------------------------------------|
|-----------------|-----------3--------------------------------------|
|                                                                    |
|------------------|--------------|-----------------|----------------|
|------------------|--------------|-----------------|----------------|
|------------------|--------------|-----------------|----------------|
|----------5/7--7--|--------10--8-|---------5/7--7--|---------10--8--|
|--0-------3/5--5--|-0-------8--6-|-0-------3/5--5--|--0-------8--6--|
|--0--0-0----------|-0--0-0-------|-0--0-0----------|--0--0-0--------|
      . .               . .            . .                . .
E
|----------------------------------|---------------------------------|
|----------------------------------|---------------------------------|
|----------------------------------|---------------------------------|
|--7-------7-------7-------7-------|--3--3----1----------------------|
|--5-------5-------5-------5-------|--3--3----1----------------------|
|--0--0-0--0--0-0--0--0-0--0--0-0--|--3--3----1----------------------|
|                                                                    |
|----------------------------------|---------------------------------|
|----------------------------------|---------------------------------|
|----------------------------------|---------10--------9-------------|
|--7-------7-------7-------7-------|-----10---------9----------------|
|--5-------5-------5-------5-------|--8----------7-------------------|
|--0--0-0--0--0-0--0--0-0--0--0-0--|---------------------------------|
|                                                                    |
|-----------------------|----------------------|---------------------|
|-----------------------|----------------------|---------------------|
|----------12--------7--|---------10--------7--|---------------------|
|------12---------7-----|-----10---------7-----|--7-7-7--7-7-7-------|
|--10----------5--------|--8----------7--------|--5-5-5--5-5-5-------|
|-----------------------|----------------------|--0-0-0--0-0-0-------|
|                                                                    |
|--------------------------------------------------------------------|
|--------------------------------------------------------------------|
|--------------------------------------------------------------------|
|--------------------------------------------------------------------|
|--87--75--53--31------------------------------------------------|
|--87--75--53--31------------------------------------------------|

F
|-----5--5--|-----5--5--|-----5--5--|-----5--5-----------------------|
|-----6--5--|-----6--5--|-----6--5--|-----6--5-----------------------|
|-----5--5--|-----5--5--|-----5--5--|-----5--5-----------------------|
|--0--7--5--|-----7--5--|-----7--5--|-----7--5-----------------------|
|--0--------|-----------|-----------|--------------------------------|
|--0--------|--0--------|--0--------|--0-----------------------------|
|                                                                    |
|---------|-----5--5---5--5--------|-----5--5------------------------|
|---------|-----6--5---6-----5-----|-----6--5------------------------|
|--10--9--|-----5--5---5--------5--|-----5--5------------------------|
|--10--9--|-----7--5---7-----------|-----7--5------------------------|
|---8--7--|------------------------|---------------------------------|
|---------|--0---------------------|--0------------------------------|
|                                                                    |
|-----5--5--|-----5--5-----------|--------|--------------------------|
|-----6--5--|-----6--5-----------|--------|--------------------------|
|-----5--5--|-----5--5--10--10--|--------|--------------------------|
|-----7--5--|-----7--5---x---x--|--3--2--|--7-------7-------x4------|
|-----------|------------8---8--|--3--2--|--5-------5---------------|
|--0--------|--0-----------------|--3--2--|--0--0-0--0--0-0----------|

G                                                                    
|--------------------------------------------------------------------|
|--------------------------------------------------------------------|
|--------------------------------------------------------------------|
|--------------------------------------------------------------------|
|--8--0--8--0-------5h7--7h8p7--5------------------------------------|
|--8--0--8--0--7h8---------------------------------------------------|
|                                                                    |
|--------------------------------------------------------------------|
|--------------------------------------------------------------------|
|--------------------------------------------------------------------|
|--------------------------------------------------------------------|
|--7--0--7--0-------3h5--7h8p7--5------------------------------------|
|--7--0--7--0--5h7---------------------------------------------------|
|                                                                    |
|--------------------------------------------------------------------|
|--------------------------------------------------------------------|
|--------------------------------------------------------------------|
|--2--2--5--5--7-------7---------------------------------------------|
|--2--2--3--5--5-------5---------------------------------------------|
|--2--2-----5-----0-0------------------------------------------------|
                  . .
H
|------------------------|-----|-------------------------------------|
|------------------------|-----|-------------------------------------|
|------------------------|--5--|--(5)--------------------------------|
|--4h5p4-----4-----------|--5--|--(5)--------------------------------|
|---------6-----6--5--3--|--3--|--(3)--3--5--6-----------------------|
|------------------------|-----|-------------------------------------|
|                                                                    |
|----------------|---------------------------------------------------|
|----------------|---------------------------------------------------|
|----------------|---------------------------------------------------|
|---------4h5p4--|--7h8p7--5--4h5p4-----4----------------------------|
|--5h7p5---------|-------------------6-----6--5----------------------|
|----------------|---------------------------------------------------|

|----------|-------------|-------------------------------------------|
|----------|-------------|-------------------------------------------|
|--5--5-5--|--5/7--5--8--|--7----------------------------------------|
|--5--5-5--|--5/7--5--8--|--7----------------------------------------|
|--3--3-3--|--3/5--3--6--|--5----------------------------------------|
|----------|-------------|-------------------------------------------|
                                                                    
I
|--------------------------------------------|-----------------------|
|--13bf(13)10--10h11p10------10--------------|-----------------------|
|------------------------12------12--11------|-----------------------|
|----------------------------------------12--|--10--10--10-12-13-----|
|--------------------------------------------|-----------------------|
|--------------------------------------------|-----------------------|
|                                             *Bend down 1/2 with bar|
|----------------------------------------------------|---------------|
|----------------------10h11p10------10--------------|----------13*--|
|------------11h12p11------------12------12--11------|------12--12---|
|--12h13p12--------------------------------------12--|--10------10---|
|----------------------------------------------------|---------------|
|----------------------------------------------------|---------------|
|*Trill while while lowering with bar                                |
|--------------------------------------------------------------------|
|--13bf(13)--10h13*--------------------------------------------------|
|--------------------------------------------------------------------|
|--------------------------------------------------------------------|
|--------------------------------------------------------------------|
|--------------------------------------------------------------------|

J
|--------------------------------------------------------------------|
|--------------------------------------------------------------------|
|--------------------------------------------------------------------|
|--5/7--7-7--7--7-7--7--7-7--7--x3-----------------------------------|
|--3/5--5-5--5--5-5--5--5-5--5---------------------------------------|
|--0----0-0--0--0-0--0--0-0--0---------------------------------------|
|                                                                    |
|--------------------------------------------------------------------|
|--------------------------------------------------------------------|
|--------------------------------------------------------------------|
|--5/7--7-7--7--7-7--8--7--------------------------------------------|
|--3/5--5-5--5--5-5--8--7--------------------------------------------|
|--0----0-0--0--0-0--8--7--------------------------------------------|
|                                                                    |
|--------------------------------------------------------------------|
|--------------------------------------------------------------------|
|--------------------------------------------------------------------|
|--7--7----3--3----5--5----8--8----7--7----10--10--------------------|
|--5--5----3--3----5--5----8--8----7--7----10--10--------------------|
|--0--0----3--3----5--5----8--8----7--7----10--10--------------------|
|                                                                    |
|--------------------------------------------------------------------|
|--------------------------------------------------------------------|
|--------------------------------------------------------------------|
|--5/7--7-7--7--5/7--7-7--7--x3--------------------------------------|
|--3/5--5-5--5--3/5--5-5--5------------------------------------------|
|--0----0-0--0--0----0-0--0------------------------------------------|

Pretty sure thats everything, listen to song for arrangement


Текст, аккорды и табулатура для песни "The Seven Gates Of Hell", исполняет "Venom".
Используемые в песне аккорды можно найти в разделе Как брать аккорды. Аккорды для шестиструнной гитары. Другие песни можно найти на нашем сайте, воспользовавшись алфавитным указателем вверху страницы.


 
Ошибка в тексте? Выделите ошибку и нажмите Ctrl+Enter