VENOM - KINGS OF EVIL
                     From the Album CAST IN STONE
                     Copyright 1997 - SPV RECORDS
                     Version 1.0 - (APR. - 2001)

Transcribed by: ВJШRN

For Questions, Comments, Newest Version, or Corrections contact
[email protected]

Check Out Death Warp, With More Transcriptions On It:
 http://www.wam.umd.edu/~ekubica

..  - palm mute          /  - slide up to
   - slide down to      ~  - vibrato
 h  - hammer on          b  - bend
 p  - pull off            Suffixes for bend
                          ph - pinch harmonic
                           f - full bend    h - half bend
*  - see comment           r - release      t - tap bend
X  - percussion mute       ~ - vibrato bend
@  - slight palm mute     () - ghost note, sustained note

Tune Gtr to C#


Riff A
|--------------------------------------------------------------------|
|--------------------------------------------------------------------|
|--------------------------------------------------------------------| 
|--------------------------------------------------------------------| 
|--6/7--6/7--6/7----6/7--6/7--9-5------------------------------------|
|--4/5--4/5--4/5----4/5--4/5--7-5------------------------------------|

Riff B
|--------------------------------------------------------------------|
|--------------------------------------------------------------------|
|--------------------------------------------------------------------| 
|--------------------------------------------------------------------| 
|--4/5--4/5--4/5----4/5--4/5--7-5------------------------------------|
|--2/3--2/3--2/3----2/3--2/3--5-3------------------------------------|

Riff C
|--------------------------------------------------------------------|
|--------------------------------------------------------------------|
|--------------------------------------------------------------------|
|--2----------2------------------------------------------------------| 
|--2----------2------------------------------------------------------|
|--0--6~--3~--0--6~--8~----------------------------------------------|

Riff D                                                                    
|--------------------------------------------------------------------|
|--------------------------------------------------------------------|
|--4-----------------------------------------------------------------| 
|--4------2-2-2------------------------------------------------------| 
|--2--5-4-2-2-2------------------------------------------------------|
|-----3-2-0-0-0------------------------------------------------------|

Riff E
|--------------------------------------------------------------------|
|--------------------------------------------------------------------|
|------------------------------------2-------------------------------|
|--5-4---5-4--5-4---7-5--5-4---5-4---2-------------------------------|
|--3/2---3/2--3/2---5/3--3/2---3/2---0-------------------------------|
|------0----------0----------0-----0---------------------------------|


Текст, аккорды и табулатура для песни "Kings Of Evil", исполняет "Venom".
Используемые в песне аккорды можно найти в разделе Как брать аккорды. Аккорды для шестиструнной гитары. Другие песни можно найти на нашем сайте, воспользовавшись алфавитным указателем вверху страницы.


 
Ошибка в тексте? Выделите ошибку и нажмите Ctrl+Enter