VENOM - BLACK FLAME (OF SATAN)
                     From the Album RESURRECTION
              Copyright (2000 - SPV RECORDS)
                     Version 1.0 - (MAY - 2001)

Transcribed by: RENE							

For Questions, Comments, Newest Version, or Corrections contact
(YOUR NAME): at [email protected]

Check Out Death Warp, With More Transcriptions On It:
 http://www.wam.umd.edu/~ekubica

..  - palm mute          /  - slide up to
   - slide down to      ~  - vibrato
 h  - hammer on          b  - bend
 p  - pull off            Suffixes for bend
                          ph - pinch harmonic
                           f - full bend    h - half bend
*  - pick scratch          r - release      t - tap bend
X  - percussion mute       ~ - vibrato bend
@  - slight palm mute     () - ghost note, sustained note

Tune Gtr to C# 		


Riff A
|----------------------------------------------------------|
|----------------------------------------------------------|
|----------------------------------------------------------| 
|----------------------------------------------------------| 
|-------------------------------------------555322---------|
|--000223553222-00022355322-2~--00022355322--------553222--|

Riff B                                                                    
|------------------------------------------------------|
|------------------------------------------------------|
|------9-9------7-7-------------9-9------7-7-----------| 
|------9-9------7-7------5------9-9------7-7-----------| 
|------7-7------5-5------5------7-7------5-5------545--|
|--000------000------000-3--000------000------000-323--|

Riff C
|------------------------|
|------------------------|
|------------------------|
|--4-----4-----4---------|
|--4-----4-----4---------|
|--2-222-2-222-2-553200--|

Riff D                                                            
|-----------------------------------------------|
|-----------------------------------------------|
|-----------------------------------------------| 
|--7-----5-----7-----4------7-----5-----4444-5--| 
|--7-----5-----7-----4------7-----5-----2222-3--|
|--5-555-3-333-5-555-2-222--5-555-3-333---------|

Riff E
|----------------------------------------|
|----------------------------------------|
|--9----10--7----------------------------|
|--9----10--7-------5--------------------|
|--7----8---5-------5------4-5------4-5--|
|-------------*****-3--000-2-3--000-2-3--|
                 
Riff F
|-------------------------------------------|
|-------------------------------------------|
|--9-9-----9-9-----10---9-9-----9-9---------|
|--9-9-----9-9-----10---9-9-----9-9------5--|
|--7-7-----7-7-----8----7-7-----7-7------5--|
|------0-0-----0-0----------0-0-----0-0--3--|

Riff G
|----------------------------------------------------|
|----------------------------------------------------|
|-------------------------------------------5-4------|
|-------------------------------------------5-4-7-5--|
|-------------------------------------------3-2-7-5--|
|--000223553222-00022355322-2~-000223553222-----5-3--|


Текст, аккорды и табулатура для песни "Black Flame Of Satan", исполняет "Venom".
Используемые в песне аккорды можно найти в разделе Как брать аккорды. Аккорды для шестиструнной гитары. Другие песни можно найти на нашем сайте, воспользовавшись алфавитным указателем вверху страницы.


 
Ошибка в тексте? Выделите ошибку и нажмите Ctrl+Enter