Am
Ты нравишься мне, как теплый ветер в лицо,
     Dm    Am
Как дождик у-у-у,
Как Солнце в окне, как пьяный запах цветов
Не больше у-у-у.
    C               G
Ты черствая, ты бесчувственна
      Dm                   E
Ну и черт с тобой. Я не хочу тебя.
Все, я пошел
       Am    Dm E
Шалабудабуда……

Как я тебя любил, как я тебя ласкал,
Не верится угу-у.
Дурак цветы купил и на лифту катал,
А ты изменница.
С каким-то мерином таскалась в скверике.
Все я пошел.

Шалабудабуда……

Я прощаю тебе те 4 рубля
С мелочью р-р-а-а.
За крем-брюлле и за кипа-брюлля.
Не за что р-р-а-а.
Я не люблю тебя, ты не хорошая,
Ну посуди сама: с твоей-то рожею.
Все, я пошел.

Шалабудабуда……

Am

2|---1---------1-------|
3|---2---------2-------|
4|---2---2-----2---2---|
5|-0---3---3-0---3---3-|

Dm

1|---1---------1-------|
2|---3---------3-------|
3|---2---2-----2---2---|
4|-0---3---3-0---3---3-|

C

2|---1---------1-------|
3|---0---0-----0---0---|
4|---2-2---2---2-2---2-|
5|-3---------3---------|

G

3|---0---------0-------|
4|---0---0-----0---0---|
5|---2-2---2---2-2---2-|
6|-3---------3---------|


Текст, аккорды и табулатура для песни "Ты нравишься мне", исполняет "Веня Дркин".
Используемые в песне аккорды можно найти в разделе Как брать аккорды. Аккорды для шестиструнной гитары. Другие песни можно найти на нашем сайте, воспользовавшись алфавитным указателем вверху страницы.


 
Ошибка в тексте? Выделите ошибку и нажмите Ctrl+Enter