Припев (там, где он свистит) > 2 раза

Am        Em            C                     G                      Dm                     	     E7
E------0--0------0--0--------0--0----------3---------3----------1---1--------1---------1---------0---0---------0--------0--
B------1--1------0--0--------1--1----------0---------0----------3---3--------3---------3---------1---1---------1--------1--
G--------------------------------------------------------------------------------------------------------------------------
D----------------------------------------------------------0-----------------------0------------------------2--------------
A--0--------2-----------3-----------------------2------------------------0-------------------------------------------2-----
E-------------------------------------3--------------------------------------------------------0---------------------------

Куплет (там, где он поет):

    Am            Em                    Am                  Am                                  A7                                                Dm
E-------0--0--------0------0-----------0---0---------0---0---------0---0---------3----3--------1---1--------1--------1----
B-------1--1--------0—-----0-----------1---1---------1---1---------2---2---------2----2--------3---3--------3--------3----
G-------------------------------------------------------------------------------------------------------------------------
D--------------------------------------------------------------------------2---------------0---------------------0-------
A--0------------------------------0----------------------------0----------------------------------------0-----------------
E---------------0-------3-----------------------0------------------------------------------------------------------------- 

   Dm*                              Dm                                        E7                                                      Am   (пауза)
E-------0--0-------0---0-------1----1--------1-------1---------0----0-----------0-----------0----------0-----------------------
B-------3--3-------3—--3-------3----3--------3-------3---------1----1-----------1-----------1----------1----------------------
G------------------------------------------------------------------------------------------------------2-----------------------
D--------------3------------0--------------------0-------------------------2----------------------------------------------------
A--2-------------------------------------0-------------------------------------------2-----------------0-----------------------
E----------------------------------------------------------0-------------------------------------------------------------------- 

    Am                          Dm                                                          G                       C
E-----0--0-----0---0----------1---1-----------1---1----------1----1----------3---3---------0---0----------0-------0-----------
B-----1--1-----1--—1----------3---3-----------3---3----------3----3----------0---0---------1---1----------1-------1-----------
G-----------------------------------------------------------------------------------------------------------------------------
D------------2----------0-------------------------------0-------------------------------------------2--------------------------
A--0------------------------------------0----------------------------------------------3----------------------3----------------
E-----------------------------------------------------------------------3------------------------------------------------------- 

      Dm                                               E7                                Am  (пауза)
E-----1---1-------1---1---------1---1------------0----------0-------0------------------------------------------------------------------
B-----3---3-------3—--3---------3---3------------3----------3-------1------------------------------------------------------------------
G-------------------------------------------------------------------2------------------------------------------------------------------
D---0-----------------------0-------------------------------------------------------------------------------------------------------------
A-------------0---------------------------------------2-------------0------------------------------------------------------------------
E--------------------------------------------0--------------------------------------------------------------------------------------------- 

Припев
                                        Am  Em
  Я в коем веке помню вас,
 Am                                         A7 
Как нынче - барышней в саду.
Dm                      Dm*
  У вас был черный водолаз,
                                      E7 Am
И был каурый в поводу.
                                       Am
  Я помню дамой на балу,
Dm                                        G
  Как нынче - бархат на атлас.
C                             Dm 
  В который раз влюбленный в вас,
             E7                    Am 
Сорил цветами по полу.

Припев

Бродячий цирк мсье Марсо,
У вас огромный алый бант.
А я бродяга, музыкант,
А вы крутили колесо.
Я помню, как теперь смешно,
Пастушка вы, я - свинопас.
И пью лукавое вино
Из ваших смелых синих глаз.

Припев

Я ковылем по полю рос,
У вас потемкинская кровь.
Вам оставалось про любовь,
Подушка, мокрая от слез.
Мои видавшие шузы,
Под пылью многих городов,
Хлебнули долюшки-росы -
Я вас нашел... Не нужно слов.

Припев

Dm*: 023230


Текст, аккорды и табулатура для песни "Любовь на перше", исполняет "Веня Дркин".
Используемые в песне аккорды можно найти в разделе Как брать аккорды. Аккорды для шестиструнной гитары. Другие песни можно найти на нашем сайте, воспользовавшись алфавитным указателем вверху страницы.


 
Ошибка в тексте? Выделите ошибку и нажмите Ctrl+Enter