Sucker Train Blues 
as tabbed by POD GOD                                         


Intro
                             3x                                                                   
E||--------------------------||
B||---------------3--2-------||
G||*--3--4--3--4------------*||
D||*------------------------*||
A||--------------------------||
E||--------------------------||


Main Riff

||---------------------------------|-------------------------------||
||---------------------------------|-------------------------------||
||*--------------------------------|------------------------------*||
||*------------------3-3-2-2-------|------------------1--0--------*||
||---5--5-4-5-5-4-5----------5-4-0-|--2--2-1-2-2-1-2--------2-1-0--||
||---3-----------------------------|--0----------------------------||


Verse Riff A
                          2x                                                             
||--------------------------||---------------------------||
||--------------------------||---------------------------||
||*------------------------*||---------------------------||
||*--2---x-x-x-2-2---------*||--2--x--------1--0---------||
||---2---x-x-x-2-2----------||--2--x--1--2--------2-1-0--||
||---0---0-0-0-0-0----------||--0--0--x--x---------------||


Verse Riff B
                                   3x
||----------------------------------||
||----------------------------------||
||*------2--4----------------------*||
||*--2-2-2--4-------------2-2-5-2--*||
||---2-2------2-2-2-2-2-2-2-2-5-2---||
||---0-0------0-0-0-0-0-0-0-0-3-0---||


Bridge Riff 
                                                                                  
||-------------------------||||---------------------------||
||-------------------------||||---------------------------||
||*--2---------------------||||--4--4--4--4--4--4--4--4--*||
||*--2-------5-------------||||--4--4--4--4--4--4--4--4--*||
||---0----x--5----1--2--1--||||--2--2--2--2--2--2--2--2---||
||--------x--3-------------||||---------------------------||


Break Before Solo
                           3x
||---------------------------||---------------------------||
||---------------------------||---------------------------||
||*--7--7--7--7--5--5--5--5--||--------------------------*||
||*--7--7--7--7--5--5--5--5--||--2--2--2--2--2--2--2--2--*||
||---5--5--5--5--3--3--3--3--||--2--2--2--2--2--2--2--2---||
||---------------------------||--0--0--0--0--0--0--0--0---||


Текст, аккорды и табулатура для песни "Sucker Train Blues", исполняет "Velvet Revolver".
Используемые в песне аккорды можно найти в разделе Как брать аккорды. Аккорды для шестиструнной гитары. Другие песни можно найти на нашем сайте, воспользовавшись алфавитным указателем вверху страницы.


 
Ошибка в тексте? Выделите ошибку и нажмите Ctrl+Enter