Tabbed by: Reed Covert
                                           send comments or corrections to [email protected]
Artist:Velvet Revolver
Album:Contraband
Song: Slither

Timing is not accurate for words or notes                                 drop d tuning
                                                          b=bend
                                                       pm=palm mute
                                                    s=slide

    (00:27)                                                       oh                                                                 oh
E|---------------------------------------------------------------------------------------------------------------------|
B|---------------------------------------------------------------------------------------------------------------------|
G|---------------------------------------------------------------------------------------------------------------------|
D|-0---3---4---0---6---7---0---10---0---6---7---0---5---0---3------0---3---4---0---6---7---10---0---6---7---0---5---3--|
A|-0---3---4---0---6---7---0---10---0---6---7---0---5---0---3------0---3---4---0---6---7---10---0---6---7---0---5---3--|
D|---------------------------------------------------------------------------------------------------------------------|
                                                                      oh
E|-----------------------------------------------------------------------------------------------------------------8------------------------------|
B|-------------------------------------------------------------------------------------------------9---10------------------9---10-----------------|
G|--------------------------------------------------------------------------7---10---11---7--------------7---------7-------------7---12---7---10--|
D|-0---3---4---0---6---7---0---10---0---6---7---0---5---0---3-------------------------------------------------------------------------------------|
A|-0---3---4---0---6---7---0---10---0---6---7---0---5---0---3-------------------------------------------------------------------------------------|
D|------------------------------------------------------------------------------------------------------------------------------------------------|
     When you look you see right through me                       Cut  the  rope,  fell  to  my  knees
E|----------------------------------------------------------------------------------------------------------------------------------|
B|----------------------------------------------------------------------------------------------------------------------------------|
G|----------------------------------------------------------------------------------------------------------------------------------|
D|----------------------------------------------------------------------------------------------------------------------------------|
A|---0---3---4---0---6---7---0---10---0---6---7---0---5---0---3-s-4-----0---3---4---0---6---7---0---10---6---7---0---5---0---3-s-4--|
D|---0---3---4---0---6---7---0---10---0---6---7---0---5---0---3-s-4-----0---3---4---0---6---7---0---10---6---7---0---5---0---3-s-4--|
  PM..................................................................|        PM..............................................................|
     Fallen,    broken    every    single    time
E|-------------------------------------------------------------------------------------------------------------------------8------------------------------|
B|----------------------------------------------------------------------------------------------------------9---10------------------9---10----------------|
G|----------------------------------------------------------------------------------7---10---11---7--------------7---------7-------------7---12---7---10--|
D|--------------------------------------------------------------------------------------------------------------------------------------------------------|
A|---0---3---4---0---6---7---0---10---0---6---7---0---5---0---3-s-4---------------------------------------------------------------------------------------|
D|---0---3---4---0---6---7---0---10---0---6---7---0---5---0---3-s-4---------------------------------------------------------------------------------------|
PM....................................................................|
    Always    keep    me    under    finger    thats    the    spot    where    you    went    to    me
E|----------------------------------------------------------------------------------------------------------------------------------|
B|----------------------------------------------------------------------------------------------------------------------------------|
G|----------------------------------------------------------------------------------------------------------------------------------|
D|----------------------------------------------------------------------------------------------------------------------------------|
A|---0---3---4---0---6---7---0---10---0---6---7---0---5---0---3-s-4-----0---3---4---0---6---7---0---10---6---7---0---5---0---3-s-4--|
D|---0---3---4---0---6---7---0---10---0---6---7---0---5---0---3-s-4-----0---3---4---0---6---7---0---10---6---7---0---5---0---3-s-4--|
  PM..................................................................|        PM..............................................................|
Might  see  some  type  of  pleasure  in  my  mind
E|----------------------------------------------------------------------------------------------------------------------------------------------|
B|----------------------------------------------------------------------------------------------------------------------------------------------|
G|----------------------------------------------------------------------------------------------------------------------------------------------|
D|----------------------------------------------------------------------------------0---3---4---0---6---7---0---10---0---6---7---0---5---0---3--|
A|---0---3---4---0---6---7---0---10---0---6---7---0---5---0---3-s-4----0---3---4---0---6---7---0---10---0---6---7---0---5---0---3---------------|
D|---0---3---4---0---6---7---0---10---0---6---7---0---5---0---3-s-4-----------------------------------------------------------------------------|
  PM..................................................................|
    Yeah  ,      here      comes      the       water    ,      it      comes      to      wash      away      the
E|------------------------------------------------------------------------------------------------------------------------------|
B|------------------------------------------------------------------------------------------------------------------------------|
G|------------------------------------------------------------------------------------------------------------------------------|
D|---0---3---4---0---6---7---0---10---0---6---7---0---5---0---3-----0---3---4---0---6---7---0---10---0---6---7---0---5---0---3--|
A|------------------------------------------------------------------------------------------------------------------------------|
D|------------------------------------------------------------------------------------------------------------------------------|
          sins      of      you      and       I        this        time       you'll        see
E|------------------------------------------------------------------------------------------------------------------------------|
B|------------------------------------------------------------------------------------------------------------------------------|
G|------------------------------------------------------------------------------------------------------------------------------|
D|---0---3---4---0---6---7---0---10---0---6---7---0---5---0---3-----0---3---4---0---6---7---0---10---0---6---7---0---5---0---3--|
A|------------------------------------------------------------------------------------------------------------------------------|
D|------------------------------------------------------------------------------------------------------------------------------|
                                                                       oh                                                                 oh
E|---------------------------------------------------------------------------------------------------------------------|
B|---------------------------------------------------------------------------------------------------------------------|
G|---------------------------------------------------------------------------------------------------------------------|
D|-0---3---4---0---6---7---0---10---0---6---7---0---5---0---3------0---3---4---0---6---7---10---0---6---7---0---5---3--|
A|-0---3---4---0---6---7---0---10---0---6---7---0---5---0---3------0---3---4---0---6---7---10---0---6---7---0---5---3--|
D|---------------------------------------------------------------------------------------------------------------------|

                                                                        oh
E|-------------------------------------------------------------------------------------------------------------------------8------------------------------|
B|----------------------------------------------------------------------------------------------------------9---10------------------9---10----------------|
G|----------------------------------------------------------------------------------7---10---11---7--------------7---------7-------------7---12---7---12--|
D|-0---3---4---0---6---7---0---10---0---6---7---0---5---0---3---------------------------------------------------------------------------------------------|
A|-0---3---4---0---6---7---0---10---0---6---7---0---5---0---3---------------------------------------------------------------------------------------------|
D|--------------------------------------------------------------------------------------------------------------------------------------------------------|


I'll put the rest of this song on later but it pretty much repeats this except for the solo which I will not tab.


Текст, аккорды и табулатура для песни "Slither", исполняет "Velvet Revolver".
Используемые в песне аккорды можно найти в разделе Как брать аккорды. Аккорды для шестиструнной гитары. Другие песни можно найти на нашем сайте, воспользовавшись алфавитным указателем вверху страницы.


 
Ошибка в тексте? Выделите ошибку и нажмите Ctrl+Enter