Title: Slither
Artist: Velvet Revolver
Album: Contraband
Tabber: Matt K

Tuning: Drop D
Guitar 1 - Lead - Slash
Guitar 2 - Rythym - Dave Kushner

Okay, this is my first tab, so let me know how I do and any corrections
or additions for the future. This is a kick ass song though and this has
some of the portions others have forgot (see Guitar 1 riff change in
Chorus). However, this is entirely from ear so it may not be 100%. Good luck

INTRO: (0:14)
Guitar 1                             Repeat 3 times          On fourth time
E|-------------------------------------------------|-----------------------|
B|-------------------------------------------------|-----------------------|
G|-------------------------------------------------|-----------------------|
D|-12-12-12-12-15-15-15-15-17-17-17-17-17-17-17-17-|-12(x4)-15(x4)-12------|
A|-------------------------------------------------|-----------------------|
D|-------------------------------------------------|-----------------------|

Guitar 2
E|-------------------------------------------------------------------------|
B|-------------------------------------------------------------3--3--------|
G|-------------------------------------------------------------2--2--------|
D|-7---x-x-x-x-x-x-x-x-5---x-x-x-x-x-x-x-x-5---x-x-x-x-x-x-x-x-0--0--/-15-|
A|-5---x-x-x-x-x-x-x-x-3---x-x-x-x-x-x-x-x-2---x-x-x-x-x-x-x-x-0--0--/-15-|
D|-------------------------------------------------------------0--0--------|


PRE-VERSE: (0:27)
Guitars 1&2                                                     Play 4 Times
E|-------------------------------------------------------------------------|
B|-------------------------------------------------------------------------|
G|-------------------------------------------------------------------------|
D|---0--3--4--0-6-/7--0--10--0--6-/7--0--5--0--3--4------------------------|
A|---0--3--4--0-6-/7--0--10--0--6-/7--0--5--0--3--4------------------------|
D|---0--3--4--0-6-/7--0--10--0--6-/7--0--5--0--3--4------------------------|

Guitar 1 plays 4th time
E|-------------------------------------------------------------------------|
B|------------------------13-----------------------------------------------|
G|------10-11----13-14----------13-14----12----10-11-----------------------|
D|---12-------12-------12----12-------12----12-----------------------------|
A|-------------------------------------------------------------------------|
D|-------------------------------------------------------------------------|


VERSE: (0:41)
Guitars 1&2                                                     Play 8 Times
E|-------------------------------------------------------------------------|
B|-------------------------------------------------------------------------|
G|-------------------------------------------------------------------------|
D|-------------------------------------------------------------------------|
A|---0--3--4--0-6-/7--0--10--0--6-/7--0--5--0--3--4------------------------|
D|---0--3--4--0-6-/7--0--10--0--6-/7--0--5--0--3--4------------------------|
  PM[........................................]


CHORUS: (1:08)
Guitar 1
E|----------------------------------|--------------------------------------|
B|----------------------------------|--------------------------------------|
G|---------------5------------------|----------------5---------------------|
D|-0-3-4-0-6-7-0---0-6-7-0-5-0-3-4--|--0-4-5-0-5-7-0---0-5-7-0-5-0-4-5-----|
A|----------------------------------|--------------------------------------|
D|----------------------------------|--------------------------------------|

E|----------------------------------|--------------------------------------|
B|----------------------------------|--------------------------------------|
G|---------------5------------------|----------------5---------------------|
D|-0-3-4-0-5-7-0---0-7-9-0-5-0-5-4--|--0-3-4-0-6-7-0---0-6-7-0-5-0-3-4-----|
A|----------------------------------|--------------------------------------|
D|----------------------------------|--------------------------------------|

Guitar 2
E|---------------|---------------|--------------|--------------------------|
B|---------------|---------------|--------------|--------------------------|
G|---------------|---------------|--------------|-2------------------------|
D|--7------------|-5-------------|-5------------|-0------------------------|
A|--5------------|-3-------------|-2------------|-0------------------------|
D|---------------|---------------|--------------|-0------------------------|

PREVERSE 1x (1:22)
VERSE 1x (1:35)
CHORUS 2x (2:03)


SOLO: (2:30)
Guitar 1       
E|------|------22b24r22~|~~------10-10-10-|-------------x------------------|
B|------|---------------|-----------------|--10~~~~~~~~-x------------------|
G|--7---|--------------|---10b-----------|--------------------------------|
D|--7---|--------------|-----------------|--------------------------------|
A|--5---|--------------|-----------------|--------------------------------|
D|------|---------------|-----------------|--------------------------------|

E|-10----10-----10----10----10-------10---|-12-----12-12-12----12b13==b==b=|
B|-13b15=b---10-13b15=b--10-13b15-10-13b15|-15b17===b==b==b----------------|
G|----------------------------------------|--------------------------------|
D|----------------------------------------|--------------------------------|
A|----------------------------------------|--------------------------------|
D|----------------------------------------|--------------------------------|

E|=12b13br12-10p8-8h10--15b17=b=b-14h15h14|-12-14p1210-12p10--10-----------
B|---------------10---10------------------|------------------13--13p12p10---
G|----------------------------------------|---------------------------------
D|----------------------------------------|---------------------------------
A|----------------------------------------|---------------------------------
D|----------------------------------------|---------------------------------

E-----------------------------------------|-------------------------101010-|
B------10---------------10----------------|-10----10---(-----10-13)-13b15bb|
G-12b14==14r12-13p12p10-12b14r12-10-------|-12b14-12b14(12b14==b--)--------|
D------------------------------------12---|---------------6 times ^--------|
A-----------------------------------------|--------------------------------|
D-----------------------------------------|--------------------------------|

E|-10---------------10---1010-10---------------13b15=b=|r13-10p8h10-10p8----
B|-13b15-13p10------13b15=b=b-13b15-13p10--------------|----------------8h10
G|------------12p10----------------------12p10---------|--------------------
D|-----------------------------------------------------|--------------------
A|-----------------------------------------------------|--------------------
D|-----------------------------------------------------|--------------------

E--------------------------------------------------------------------------|
B-10/13p10-----------------------------------------------------------------|
G----------12p10------------7-10h12p10---7---------------------------------|
D---------------12p107-7h9------------------------------------------------|
A--------------------------------------------------------------------------|
D--------------------------------------------------------------------------|

Guitar 2:                                                         Play twice
E|--------------------|------------------|------------------|--------------|
B|--------------------|------------------|------------------|--------------|
G|-7-7--7--7-7-7-7--7-|5-5--5-5-5-5--5--5|------------------|--------------|
D|-7-7--7--7-7-7-7--7-|5-5--5-5-5-5--5--5|5-5--5--5-5-5-5--5|0-0-0-0-0-0-0-|
A|-5-5--5--5-5-5-5--5-|3-3--3-3-3-3--3--3|2-2--2--2-2-2-2--2|0-0-0-0-0-0-0-|
D|-0-0--0--0-0-0-0--0-|------------------|------------------|0-0-0-0-0-0-0-|


PRECHORUS:
Guitar 1
E|---------------|-------------|-------------|-8h10--7h8-------------------|
B|---------------|-------------|-------------|------------10-9h10--8--6b8--|
G|---7~~~~~~~~~~~~~~~~~~~~~~~~~~~~~~~~~~~~~--|-----------------------------|
D|---------------|-----------^-|-------------|-----------------------------|
A|---------------|-----feedback|-------------|-----------------------------|
D|---------------|-------------|-------------|-----------------------------|

Guitar 2               Play 3 times                            On 4th time  
E|---------------------------------|---------------------------------------|
B|---------------------------------|---------------------------------------|
G|---------------------------------|---------------------------------------|
D|-0-3-4-0-6/7-0-10-0-6/7-0-5-0-3-4|-10--12--0--9--10--0--7--6/7--5--0--3b4|
A|-0-3-4-0-6/7-0-10-0-6/7-0-5-0-3-4|-10--12--0--9--10--0--7--6/7--5--0--3b4|
D|-0-3-4-0-6/7-0-10-0-6/7-0-5-0-3-4|-10--12--0--9--10--0--7--6/7--5--0--3b4|

CHORUS 2x


CHORUS SOLO 1
Guitar 1
E|-12b13-10--------------10----------------------------------------|-10----|
B|-------13b15=br13p10---13b15r13-10-------------------------------|-13b15~|
G|--------------------12----------12b14r12-10h12p10----------------|-------|
D|--------------------------------------------------12-10-----10-11|-------|
A|-------------------------------------------------------10h12-----|-------|
D|-----------------------------------------------------------------|-------|


CHORUS SOLO 2
E|---17b20-17-16-15--------------------------------------------------------|
B|-15---------------18b20r18-15--------------------------------------------|
G|------------------------------17p14--14----------------------------------|
D|-----------------------------------17--17-15h17p15--15-------------------|
A|--------------------------------------------------17--17-15--------------|
D|-----------------------------------------------------------18p17p15-12--|


OUTRO
Guitar 1                   Play 3 times
E|--------------------------------------|-8h10--7h8-----------------|------|
B|-----------------13-------------------|-----------10-9h10--8--6h8-|------|
G|---10-11--13-14------13-14--12--10-11-|---------------------------|-7~--|
D|-12-----12-----12--12-----12--12------|---------------------------|------|
A|--------------------------------------|---------------------------|------|
D|--------------------------------------|---------------------------|------|

Guitar 2               Play 3 times                            
E|---------------------------------|--------------------------------|------|
B|---------------------------------|--------------------------------|------|
G|---------------------------------|--------------------------------|-7---|
D|-0-3-4-0-6/7-0-10-0-6/7-0-5-0-3-4|-0-10-12-0-9-10-0-7--6/7-5-0-3-5|-7---|
A|-0-3-4-0-6/7-0-10-0-6/7-0-5-0-3-4|-0-10-12-0-9-10-0-7--6/7-5-0-3-5|-5---|
D|-0-3-4-0-6/7-0-10-0-6/7-0-5-0-3-4|-0-10-12-0-9-10-0-7--6/7-5-0-3-5|-0---|

KEY

h - hammer on
p - pull off
b - bend
b== - sustain bend
b==b - bend, then hit bent note
r - release bend
br - bend, then release
~~ - vibrato
/ - slide up
 - slide down
x - fret hand mute
PM - Palm mute


Текст, аккорды и табулатура для песни "Slither", исполняет "Velvet Revolver".
Используемые в песне аккорды можно найти в разделе Как брать аккорды. Аккорды для шестиструнной гитары. Другие песни можно найти на нашем сайте, воспользовавшись алфавитным указателем вверху страницы.


 
Ошибка в тексте? Выделите ошибку и нажмите Ctrl+Enter